Guitar Tabs, Chords and Lyrics
Server problems seems to be fixed. Chordie has been experiencing problems with songs disappearing. These issues now seems to be fixed, but still verifying the fix. If you find anything strange, please email admin@chordie.com.


Call Me  Shinedown

 
 -------------------------------------------------------------------------------

Call Me - Shinedown
 
 -------------------------------------------------------------------------------

Tabbed by: mattdef128
Email: mattdef128@aol.com
Tuning: Standard
C#m* E* B* A* F#m*
 
 E---|-----|---|---|---|-----|
 B---|--5--|-0-|-4-|-2-|--2--|
 G---|--6--|-1-|-4-|-2-|--2--|
 D---|--6--|-2-|-4-|-2-|--4--|
 A---|--4--|-2-|-2-|-0-|--4--|
 D---|--4--|-0-|-2-|-0-|--2--|

INTRO: C#m - E - B - A
Piano Riff:
 
 E:-------------------------------------------------------------------\
 B:-------------------------------------------------------------------\
 G:-1---1----------1-----1----------1-----1---------------------------\
 D:---2----4--2-------2-----4--2-------2-----4--2-------2-----4---2---\
 A:--------------------------------------------------4-----4----------\
 E:-------------------------------------------------------------------\

VERSE
[C#m] Wrap me in a bolt of lightning.[E] Send me on my way still smiling.
[B] Maybe that's the way I should go,[A] straight into the mouth of the unknown.
[C#m] I left the spare key on the table.[E] Never really thought I'de be able
[B] to say I merely visit on the weekends.[A] I lost my whole life and a dear friend.
PRE-CHORUS
[F#m] I've said it s[B]o many times;[E] I would change my [B]ways. No, nevermind.
[F#m] God knows I've [A]tried.
CHORUS
[C#m] Call me a [E]sinner, [F#m]call me a s[A]aint[C#m]. Tell me it's [E]over, I'll still[F#m] love you the sa[A]me.
[C#m] Call me you're [E]favorite,[F#m] call me the w[A]orst[C#m]. Tell me it's [E]over, I don'[F#m]t want you to h[A]urt.
It's [A]all that I[B] can say[C#m], so [A]I'll be o[B]n my way.
INTERLUDE: C#m - E - B - A
VERSE 2
[C#m] I finally put it all together.[E] Nothing really lasts forever.
[B] I had to make a choice that was not mine,[A] I had to say goodbye for the last time.
[C#m] I kept my whole life in a suitcase[E]. Never really stayed in one place.
[B] Maybe that's the way it should be.[A] You know, I live my life like a gypsy.
PRE-CHORUS
[F#m] I've said it s[B]o many times;[E] I would change my [B]ways. No, nevermind.
[F#m] God knows I've [A]tried.
CHORUS
[C#m] Call me a [E]sinner, [F#m]call me a s[A]aint[C#m]. Tell me it's [E]over, I'll still[F#m] love you the sa[A]me.
[C#m] Call me you're [E]favorite,[F#m] call me the w[A]orst[C#m]. Tell me it's [E]over, I don'[F#m]t want you to h[A]urt.
It's [A]all that I[B] can say[C#m], so [A]I'll be o[B]n my way.
BRIDGE
[A] I'll always keep you inside[E], you healed my heart and my l[B]ife.
And [F#m]you know I [A]tried
CHORUS
[C#m] Call me a [E]sinner, [F#m]call me a s[A]aint[C#m]. Tell me it's [E]over, I'll still[F#m] love you the sa[A]me.
[C#m] Call me you're [E]favorite,[F#m] call me the w[A]orst[C#m]. Tell me it's [E]over, I don'[F#m]t want you to h[A]urt.
It's [A]all that I[B] can say[C#m], so [A]I'll be o[B]n my way.
OUTRO
So [A]I'll be o[B]n my w[C#m]ay. So [A]I'll be [B]on my [A]way[-] [-] [-] [C#m]

Important: The song above is NOT stored on the Chordie server. The original song is hosted at www.guitaretab.com. Chordie works as a search engine and provides on-the-fly formatting. Chordie does not index songs against artists'/composers' will. To remove this song please click here.

Text color:
Chord color:
Chord grids: 
Font size:    
Page size: 

A B C#m E F#m
Rate #0 of 9 versions

Jango Player

Login - add to songbook

SHARE PAGE  




You need to log in to post comments