Guitar Tabs, Chords and Lyrics
Server problems seems to be fixed. Chordie has been experiencing problems with songs disappearing. These issues now seems to be fixed, but still verifying the fix. If you find anything strange, please email admin@chordie.com.


Left Out   Shinedown

 
 Tuning: Drop-D ( D-A-D-G-B-E )

 


 ==================================================================================


 


 

 
 ----------------------------------------------------------------------------------
 ----------------------------------------------------------------------------------
 ----------------------------------------------------------------------------------
 ----------------------------------------------------------------------------------
 ----------------------------------------------------------------------------------

 


 


 ==================================================================================


 INTRO


 ==================================================================================


 


 Fade in RIFF>>>>


 Gtr.1 (dist.)


 

 
 E|-----------------|-----------------|-----------------|-----------------|
 B|-----------------|-----------------|-----------------|-----------------|
 G|-----------------|-----------------|-----------------|-----------------|
 D|-0-0-0-0-0-0-0-0-|-0-0-0-0-0-0-0-0-|-0-0-0-0-0-0-0-0-|-0-0-0-0-0-0-0-0-|
 A|-----------------|-----------------|-----------------|-----------------|
 D|-----------------|-----------------|-----------------|-----------------|

 


 


 Gtr.1


 

 
 E|-----------------|-----------------|-----------------|-----------------|
 B|-----------------|-----------------|-----------------|-----------------|
 G|-----------------|-----------------|-----------------|-----------------|
 D|-0-0-0-0-0-0-0-0-|-0-0-0-0-0-0-0-0-|-0-0-0-0-0-0-0-0-|-0-0-0-0-0-0-0-0-|
 A|-----------------|-----------------|-----------------|-----------------|
 D|-----------------|-----------------|-----------------|-----------------|

 


 Gtr.2 (dist.)


 

 
 E|-----------------|-----------------|-----------------|-----------------|
 B|-13b(1/3)r-------|-----------------|-----------------|-----------------|
 G|-----------------|-----------------|-----------------|-----------------|
 D|-----------------|-----------------|-----------------|-----------------|
 A|-----------------|-----------------|-----------------|-----------------|
 D|-----------------|-----------------|-----------------|-----------------|

 


 Gtr.3 (dist.)


 

 
 E|-----------------|-----------------|-----------------|-----------------|
 B|-----------------|-----------------|-----------------|-----------------|
 G|-----------------|-----------------|-----------------|-----------------|
 D|-----/5-5--5-5-5-|-----/5-5--5-5-5-|-----/5-5--5-5-5-|-----/5-5--5-5-5-|
 A|-4/5-------------|-4/5-------------|-4/5-------------|-4/5-------------|
 D|-----------------|-----------------|-----------------|-----------------|

 


 


 Gtr.1


 

 
 E|-----------------|-----------------|-----------------|-----------------|
 B|-----------------|-----------------|-----------------|-----------------|
 G|-----------------|-----------------|-----------------|-----------------|
 D|-0-0-0-0-0-0-0-0-|-0-0-0-0-0-0-0-0-|-0-0-0-0-0-0-0-0-|-0-0-0-0-0-0-0-0-|
 A|-----------------|-----------------|-----------------|-----------------|
 D|-----------------|-----------------|-----------------|-----------------|

 


 Gtr.2


 

 
 E|-----------------|-----------------|-----------------|-----------------|
 B|-13b(1/3)r-------|-----------------|-----------------|-----------------|
 G|-----------------|-----------------|-----------------|-----------------|
 D|-----------------|-----------------|-----------------|-----------------|
 A|-----------------|-----------------|-----------------|-----------------|
 D|-----------------|-----------------|-----------------|-----------------|

 


 Gtr.3


 

 
 E|-----------------|-----------------|-----------------|-----------------|
 B|-----------------|-----------------|-----------------|-----------------|
 G|-----------------|-----------------|-----------------|-----------------|
 D|-----/5-5--5-5-5-|-----/5-5--5-5-5-|-----/5-5--5-5-5-|-----/5-5--5-5-5-|
 A|-4/5-------------|-4/5-------------|-4/5-------------|-4/5-------------|
 D|-----------------|-----------------|-----------------|-----------------|

 


 Gtr.4 (dist.)


 

 
 E|-----------------|-----------------|-----------------|-----------------|
 B|-----------------|-----------------|-----------------|-----------------|
 G|-----------------|-----------------|-----------------|-----------------|

 


 D|-7~~~~~~~~~~~~~~~|~~~~~~~~~~~~~~~~~|-7\6~~~~~~~~~~~~~|~~~~~~~~~~~~~~~~~|


 A|-5~~~~~~~~~~~~~~~|~~~~~~~~~~~~~~~~~|-5~~~~~~~~~~~~~~~|~~~~~~~~~~~~~~~~~|


 

 
 D|-----------------|-----------------|-----------------|-----------------|

 


 


 Gtr.1


 

 
 E|-----------------|-----------------|-----------------|-----------------|
 B|-----------------|-----------------|-----------------|-----------------|
 G|-----------------|-----------------|-----------------|-----------------|
 D|-0-0-0-0-0-0-0-0-|-0-0-0-0-0-0-0-0-|-0-0-0-0-0-0-0-0-|-0-0-0-0-0-0-0-0-|
 A|-----------------|-----------------|-----------------|-----------------|
 D|-----------------|-----------------|-----------------|-----------------|

 


 Gtr.2


 

 
 E|-----------------|-----------------|-----------------|-----------------|
 B|-13b(1/3)r-------|-----------------|-----------------|-----------------|
 G|-----------------|-----------------|-----------------|-----------------|
 D|-----------------|-----------------|-----------------|-----------------|
 A|-----------------|-----------------|-----------------|-----------------|
 D|-----------------|-----------------|-----------------|-----------------|

 


 Gtr.3


 

 
 E|-----------------|-----------------|-----------------|-----------------|
 B|-----------------|-----------------|-----------------|-----------------|
 G|-----------------|-----------------|-----------------|-----------------|
 D|-----/5-5--5-5-5-|-----/5-5--5-5-5-|-----/5-5--5-5-5-|-----/5-5--5-5-5-|
 A|-4/5-------------|-4/5-------------|-4/5-------------|-4/5-------------|
 D|-----------------|-----------------|-----------------|-----------------|

 


 Gtr.4 (dist.)


 

 
 E|-----------------|-----------------|-----------------|-----------------|
 B|-----------------|-----------------|-----------------|-----------------|
 G|-----------------|-----------------|-----------------|-----------------|

 


 D|-7~~~~~~~~~~~~~~~|~~~~~~~~~~~~~~~~~|-7\6~~~~~~~~~~~~~|~~~~~~~~~~~~~~~~~|


 A|-5~~~~~~~~~~~~~~~|~~~~~~~~~~~~~~~~~|-5~~~~~~~~~~~~~~~|~~~~~~~~~~~~~~~~~|


 

 
 D|-----------------|-----------------|-----------------|-----------------|

 


 


 ==================================================================================


 PRE-VERSE 1A


 ==================================================================================


 


 Gtr.1


 

 
 E|-------------------|-------------------|-------------------|-------------------|
 B|-------------------|-------------------|-------------------|-------------------|
 G|-------------------|-------------------|-------------------|-------------------|
 D|-10--0--3/5-3--0-0-|-10--0--3/5-3--3-3-|-10--0--3/5-3--0-0-|-10--0--3/5-3--3-3-|
 A|-10--0--3/5-3--0-0-|-10--0--3/5-3--3-3-|-10--0--3/5-3--0-0-|-10--0--3/5-3--3-3-|
 D|-10--0--3/5-3--0-0-|-10--0--3/5-3--3-3-|-10--0--3/5-3--0-0-|-10--0--3/5-3--3-3-|

 


 


 Gtr.1


 

 
 E|-------------------|-------------------|-------------------|-------------------|
 B|-------------------|-------------------|-------------------|-------------------|
 G|-------------------|-------------------|-------------------|-------------------|
 D|-10--0--3/5-3--0-0-|-10--0--3/5-3--3-3-|-10--0--3/5-3--0-0-|-10--0--3/5-3--3-3-|
 A|-10--0--3/5-3--0-0-|-10--0--3/5-3--3-3-|-10--0--3/5-3--0-0-|-10--0--3/5-3--3-3-|
 D|-10--0--3/5-3--0-0-|-10--0--3/5-3--3-3-|-10--0--3/5-3--0-0-|-10--0--3/5-3--3-3-|

 


 Gtr.2


 

 
 E|-------------------|-------------------|-------------------|-------------------|
 B|-------------------|-10~~~-11--10~~~~--|-------------------|-10~~--11~-13~11-10|
 G|-/7~~~~----10~~~-7-|-10~~~-10--10~~~~--|-/7~~~~----10~~~-7-|-10~~--10~-10~10-10|
 D|-/7~~~~-----7~~~-7-|-------------------|-/7~~~~-----7~~~-7-|-------------------|
 A|-------------------|-------------------|-------------------|-------------------|
 D|-------------------|-------------------|-------------------|-------------------|

 


 


 ==================================================================================


 VERSE 1


 ==================================================================================


 


 Gtr.1


 

 
 E|-----------------|-----------------|-----------------|-----------------|
 B|-----------------|-----------------|-----------------|-----------------|
 G|-----------------|-----------------|-----------------|-----------------|
 D|-0-0-0-0-0-0-0-0-|-0-0-0-0-0-0-0-0-|-0-0-0-0-0-0-0-0-|-0-0-0-0-0-0-0-0-|
 A|-----------------|-----------------|-----------------|-----------------|
 D|-----------------|-----------------|-----------------|-----------------|

 


 Gtr.2


 

 
 E|-----------------|-----------------|-----------------|-----------------|
 B|-----------------|-----------------|-----------------|-----------------|
 G|-----------------|-----------------|-----------------|-----------------|
 D|-----------------|-----------------|-----------------|-----------------|
 A|-----------------|-----------------|-----------------|-----------------|
 D|-----------------|-----------------|-----------------|-----------------|

 


 Gtr.4


 

 
 E|-----------------|-----------------|-----------------|-----------------|
 B|-----------------|-----------------|-----------------|-----------------|
 G|-----------------|-----------------|-----------------|-----------------|

 


 D|-7~~~~~~~~~~~~~~~|~~~~~~~~~~~~~~~~~|-7\6~~~~~~~~~~~~~|~~~~~~~~~~~~~~~~~|


 A|-5~~~~~~~~~~~~~~~|~~~~~~~~~~~~~~~~~|-5~~~~~~~~~~~~~~~|~~~~~~~~~~~~~~~~~|


 

 
 D|-----------------|-----------------|-----------------|-----------------|

 


 


 Gtr.1


 

 
 E|-----------------|-----------------|-----------------|-----------------|
 B|-----------------|-----------------|-----------------|-----------------|
 G|-----------------|-----------------|-----------------|-----------------|
 D|-0-0-0-0-0-0-0-0-|-0-0-0-0-0-0-0-0-|-0-0-0-0-0-0-0-0-|-0-0-0-0-0-0-0-0-|
 A|-----------------|-----------------|-----------------|-----------------|
 D|-----------------|-----------------|-----------------|-----------------|

 


 Gtr.2


 

 
 E|-----------------|-----------------|-----------------|-----------------|
 B|-13b(1/3)r(13)b(1/3)r(13)b(1/3)r-13|-----------------|-----------------|
 G|-----------------|-----------------|-----------------|-----------------|
 D|-----------------|-----------------|-----------------|-----------------|
 A|-----------------|-----------------|-----------------|-----------------|
 D|-----------------|-----------------|-----------------|-----------------|

 


 Gtr.4


 

 
 E|-----------------|-----------------|-----------------|-----------------|
 B|-----------------|-----------------|-----------------|-----------------|
 G|-----------------|-----------------|-----------------|-----------------|

 


 D|-7~~~~~~~~~~~~~~~|~~~~~~~~~~~~~~~~~|-7\6~~~~~~~~~~~~~|~~~~~~~~~~~~~~~~~|


 A|-5~~~~~~~~~~~~~~~|~~~~~~~~~~~~~~~~~|-5~~~~~~~~~~~~~~~|~~~~~~~~~~~~~~~~~|


 

 
 D|-----------------|-----------------|-----------------|-----------------|

 


 


 Gtr.1


 

 
 E|-----------------|-----------------|-----------------|-----------------|
 B|-----------------|-----------------|-----------------|-----------------|
 G|-----------------|-----------------|-----------------|-----------------|
 D|-0-0-0-0-0-0-0-0-|-0-0-0-0-0-0-0-0-|-0-0-0-0-0-0-0-0-|-0-0-0-0-0-0-0-0-|
 A|-----------------|-----------------|-----------------|-----------------|
 D|-----------------|-----------------|-----------------|-----------------|

 


 Gtr.2


 

 
 E|-----------------|-----------------|-----------------|-----------------|
 B|-13b(1/3)r(13)b(1/3)r(13)b(1/3)r-13|-----------------|-----------------|
 G|-----------------|-----------------|-----------------|-----------------|
 D|-----------------|-----------------|-----------------|-----------------|
 A|-----------------|-----------------|-----------------|-----------------|
 D|-----------------|-----------------|-----------------|-----------------|

 


 Gtr.4


 

 
 E|-----------------|-----------------|-----------------|-----------------|
 B|-----------------|-----------------|-----------------|-----------------|
 G|-----------------|-----------------|-----------------|-----------------|

 


 D|-7~~~~~~~~~~~~~~~|~~~~~~~~~~~~~~~~~|-7\6~~~~~~~~~~~~~|~~~~~~~~~~~~~~~~~|


 A|-5~~~~~~~~~~~~~~~|~~~~~~~~~~~~~~~~~|-5~~~~~~~~~~~~~~~|~~~~~~~~~~~~~~~~~|


 

 
 D|-----------------|-----------------|-----------------|-----------------|

 


 


 Gtr.1


 

 
 E|-----------------|-----------------|-----------------|-----------------|
 B|-----------------|-----------------|-----------------|-----------------|
 G|-----------------|-----------------|-----------------|-----------------|
 D|-0-0-0-0-0-0-0-0-|-0-0-0-0-0-0-0-0-|-0-0-0-0-0-0-0-0-|-0-0-0-0-0-0-0-0-|
 A|-----------------|-----------------|-----------------|-----------------|
 D|-----------------|-----------------|-----------------|-----------------|

 


 Gtr.2


 

 
 E|-----------------|-----------------|-----------------|-----------------|
 B|-13b(1/3)r(13)b(1/3)r(13)b(1/3)r-13|-----------------|-----------------|
 G|-----------------|-----------------|-----------------|-----------------|
 D|-----------------|-----------------|-----------------|-----------------|
 A|-----------------|-----------------|-----------------|-----------------|
 D|-----------------|-----------------|-----------------|-----------------|

 


 Gtr.4


 

 
 E|-----------------|-----------------|-----------------|-----------------|
 B|-----------------|-----------------|-----------------|-----------------|
 G|-----------------|-----------------|-----------------|-----------------|

 


 D|-7~~~~~~~~~~~~~~~|~~~~~~~~~~~~~~~~~|-7\6~~~~~~~~~~~~~|~~~~~~~~~~~~~~~~~|


 A|-5~~~~~~~~~~~~~~~|~~~~~~~~~~~~~~~~~|-5~~~~~~~~~~~~~~~|~~~~~~~~~~~~~~~~~|


 

 
 D|-----------------|-----------------|-----------------|-----------------|

 


 


 ==================================================================================


 PRE-CHORUS


 ==================================================================================


 


 Gtr.1


 

 
 E|-------------------|-------------------|-------------------|-------------------|
 B|-------------------|-------------------|-------------------|-------------------|
 G|-------------------|-------------------|-------------------|-------------------|
 D|-10--0--3/5-3--0-0-|-10--0--3/5-3--3-3-|-10--0--3/5-3--0-0-|-10--0--3/5-3--3-3-|
 A|-10--0--3/5-3--0-0-|-10--0--3/5-3--3-3-|-10--0--3/5-3--0-0-|-10--0--3/5-3--3-3-|
 D|-10--0--3/5-3--0-0-|-10--0--3/5-3--3-3-|-10--0--3/5-3--0-0-|-10--0--3/5-3--3-3-|

 


 


 ==================================================================================


 CHORUS


 ==================================================================================


 


 Gtr.1


 

 
 E|------------------|-------------------|------------------|-----------------|
 B|------------------|-------------------|------------------|-----------------|
 G|------------------|-------------------|------------------|-----------------|
 D|-10/12-12-12-12-x-|-3-3-3-3--10/12-12-|-12-12-x-15-15-15-|-15--------------|
 A|-10/12-12-12-12-x-|-3-3-3-3--10/12-12-|-12-12-x-15-15-15-|-15--------------|
 D|-10/12-12-12-12-x-|-3-3-3-3--10/12-12-|-12-12-x-15-15-15-|-15--------------|

 


 


 Gtr.1


 

 
 E|------------------|-------------------|-------------------|----------------|
 B|------------------|-------------------|-------------------|----------------|
 G|------------------|-------------------|-------------------|----------------|
 D|-10/12-12-12-12-x-|-3-3-3-3--10/12-12-|-12-15-12-12-10/12-|-12-12----------|
 A|-10/12-12-12-12-x-|-3-3-3-3--10/12-12-|-12-15-12-12-10/12-|-12-12----------|
 D|-10/12-12-12-12-x-|-3-3-3-3--10/12-12-|-12-15-12-12-10/12-|-12-12----------|

 


 


 ==================================================================================


 PRE-VERSE 1B


 ==================================================================================


 


 Gtr.1


 

 
 E|-------------------|-------------------|-------------------|-------------------|
 B|-------------------|-------------------|-------------------|-------------------|
 G|-------------------|-------------------|-------------------|-------------------|
 D|-10--0--3/5-3--0-0-|-10--0--3/5-3--3-3-|-10--0--3/5-3--0-0-|-10--0--3/5-3--3-3-|
 A|-10--0--3/5-3--0-0-|-10--0--3/5-3--3-3-|-10--0--3/5-3--0-0-|-10--0--3/5-3--3-3-|
 D|-10--0--3/5-3--0-0-|-10--0--3/5-3--3-3-|-10--0--3/5-3--0-0-|-10--0--3/5-3--3-3-|

 


 Gtr.2


 

 
 E|-------------------|-------------------|-------------------|-------------------|
 B|-------------------|-10~~~-11--10~~~~--|-------------------|-10~~--11~-13~11-10|
 G|-/7~~~~----10~~~-7-|-10~~~-10--10~~~~--|-/7~~~~----10~~~-7-|-10~~--10~-10~10-10|
 D|-/7~~~~-----7~~~-7-|-------------------|-/7~~~~-----7~~~-7-|-------------------|
 A|-------------------|-------------------|-------------------|-------------------|
 D|-------------------|-------------------|-------------------|-------------------|

 


 


 ==================================================================================


 VERSE 2


 ==================================================================================


 


 Gtr.1


 

 
 E|-----------------|-----------------|-----------------|-----------------|
 B|-----------------|-----------------|-----------------|-----------------|
 G|-----------------|-----------------|-----------------|-----------------|
 D|-0-0-0-0-0-0-0-0-|-0-0-0-0-0-0-0-0-|-0-0-0-0-0-0-0-0-|-0-0-0-0-0-0-0-0-|
 A|-----------------|-----------------|-----------------|-----------------|
 D|-----------------|-----------------|-----------------|-----------------|

 


 Gtr.2


 

 
 E|-----------------|-----------------|-----------------|-----------------|
 B|-----------------|-----------------|-----------------|-----------------|
 G|-----------------|-----------------|-----------------|-----------------|
 D|-----------------|-----------------|-----------------|-----------------|
 A|-----------------|-----------------|-----------------|-----------------|
 D|-----------------|-----------------|-----------------|-----------------|

 


 Gtr.4


 

 
 E|-----------------|-----------------|-----------------|-----------------|
 B|-----------------|-----------------|-----------------|-----------------|
 G|-----------------|-----------------|-----------------|-----------------|

 


 D|-7~~~~~~~~~~~~~~~|~~~~~~~~~~~~~~~~~|-7\6~~~~~~~~~~~~~|~~~~~~~~~~~~~~~~~|


 A|-5~~~~~~~~~~~~~~~|~~~~~~~~~~~~~~~~~|-5~~~~~~~~~~~~~~~|~~~~~~~~~~~~~~~~~|


 

 
 D|-----------------|-----------------|-----------------|-----------------|

 


 


 Gtr.1


 

 
 E|-----------------|-----------------|-----------------|-----------------|
 B|-----------------|-----------------|-----------------|-----------------|
 G|-----------------|-----------------|-----------------|-----------------|
 D|-0-0-0-0-0-0-0-0-|-0-0-0-0-0-0-0-0-|-0-0-0-0-0-0-0-0-|-0-0-0-0-0-0-0-0-|
 A|-----------------|-----------------|-----------------|-----------------|
 D|-----------------|-----------------|-----------------|-----------------|

 


 Gtr.2


 

 
 E|-----------------|-----------------|-----------------|-----------------|
 B|-13b(1/3)r(13)b(1/3)r(13)b(1/3)r-13|-----------------|-----------------|
 G|-----------------|-----------------|-----------------|-----------------|
 D|-----------------|-----------------|-----------------|-----------------|
 A|-----------------|-----------------|-----------------|-----------------|
 D|-----------------|-----------------|-----------------|-----------------|

 


 Gtr.4


 

 
 E|-----------------|-----------------|-----------------|-----------------|
 B|-----------------|-----------------|-----------------|-----------------|
 G|-----------------|-----------------|-----------------|-----------------|

 


 D|-7~~~~~~~~~~~~~~~|~~~~~~~~~~~~~~~~~|-7\6~~~~~~~~~~~~~|~~~~~~~~~~~~~~~~~|


 A|-5~~~~~~~~~~~~~~~|~~~~~~~~~~~~~~~~~|-5~~~~~~~~~~~~~~~|~~~~~~~~~~~~~~~~~|


 

 
 D|-----------------|-----------------|-----------------|-----------------|

 


 


 Gtr.1


 

 
 E|-----------------|-----------------|-----------------|-----------------|
 B|-----------------|-----------------|-----------------|-----------------|
 G|-----------------|-----------------|-----------------|-----------------|
 D|-0-0-0-0-0-0-0-0-|-0-0-0-0-0-0-0-0-|-0-0-0-0-0-0-0-0-|-0-0-0-0-0-0-0-0-|
 A|-----------------|-----------------|-----------------|-----------------|
 D|-----------------|-----------------|-----------------|-----------------|

 


 Gtr.2


 

 
 E|-----------------|-----------------|-----------------|-----------------|
 B|-13b(1/3)r(13)b(1/3)r(13)b(1/3)r-13|-----------------|-----------------|
 G|-----------------|-----------------|-----------------|-----------------|
 D|-----------------|-----------------|-----------------|-----------------|
 A|-----------------|-----------------|-----------------|-----------------|
 D|-----------------|-----------------|-----------------|-----------------|

 


 Gtr.4


 

 
 E|-----------------|-----------------|-----------------|-----------------|
 B|-----------------|-----------------|-----------------|-----------------|
 G|-----------------|-----------------|-----------------|-----------------|

 


 D|-7~~~~~~~~~~~~~~~|~~~~~~~~~~~~~~~~~|-7\6~~~~~~~~~~~~~|~~~~~~~~~~~~~~~~~|


 A|-5~~~~~~~~~~~~~~~|~~~~~~~~~~~~~~~~~|-5~~~~~~~~~~~~~~~|~~~~~~~~~~~~~~~~~|


 

 
 D|-----------------|-----------------|-----------------|-----------------|

 


 


 Gtr.1


 

 
 E|-----------------|-----------------|-----------------|-----------------|
 B|-----------------|-----------------|-----------------|-----------------|
 G|-----------------|-----------------|-----------------|-----------------|
 D|-0-0-0-0-0-0-0-0-|-0-0-0-0-0-0-0-0-|-0-0-0-0-0-0-0-0-|-0-0-0-0-0-0-0-0-|
 A|-----------------|-----------------|-----------------|-----------------|
 D|-----------------|-----------------|-----------------|-----------------|

 


 Gtr.2


 

 
 E|-----------------|-----------------|-----------------|-----------------|
 B|-13b(1/3)r(13)b(1/3)r(13)b(1/3)r-13|-----------------|-----------------|
 G|-----------------|-----------------|-----------------|-----------------|
 D|-----------------|-----------------|-----------------|-----------------|
 A|-----------------|-----------------|-----------------|-----------------|
 D|-----------------|-----------------|-----------------|-----------------|

 


 Gtr.4


 

 
 E|-----------------|-----------------|-----------------|-----------------|
 B|-----------------|-----------------|-----------------|-----------------|
 G|-----------------|-----------------|-----------------|-----------------|

 


 D|-7~~~~~~~~~~~~~~~|~~~~~~~~~~~~~~~~~|-7\6~~~~~~~~~~~~~|~~~~~~~~~~~~~~~~~|


 A|-5~~~~~~~~~~~~~~~|~~~~~~~~~~~~~~~~~|-5~~~~~~~~~~~~~~~|~~~~~~~~~~~~~~~~~|


 

 
 D|-----------------|-----------------|-----------------|-----------------|

 


 


 ==================================================================================


 PRE-CHORUS


 ==================================================================================


 


 Gtr.1


 

 
 E|-------------------|-------------------|-------------------|-------------------|
 B|-------------------|-------------------|-------------------|-------------------|
 G|-------------------|-------------------|-------------------|-------------------|
 D|-10--0--3/5-3--0-0-|-10--0--3/5-3--3-3-|-10--0--3/5-3--0-0-|-10--0--3/5-3--3-3-|
 A|-10--0--3/5-3--0-0-|-10--0--3/5-3--3-3-|-10--0--3/5-3--0-0-|-10--0--3/5-3--3-3-|
 D|-10--0--3/5-3--0-0-|-10--0--3/5-3--3-3-|-10--0--3/5-3--0-0-|-10--0--3/5-3--3-3-|

 


 


 ==================================================================================


 CHORUS 2


 ==================================================================================


 


 Gtr.1


 

 
 E|------------------|-------------------|------------------|-----------------|
 B|------------------|-------------------|------------------|-----------------|
 G|------------------|-------------------|------------------|-----------------|
 D|-10/12-12-12-12-x-|-3-3-3-3--10/12-12-|-12-12-x-15-15-15-|-15--------------|
 A|-10/12-12-12-12-x-|-3-3-3-3--10/12-12-|-12-12-x-15-15-15-|-15--------------|
 D|-10/12-12-12-12-x-|-3-3-3-3--10/12-12-|-12-12-x-15-15-15-|-15--------------|

 


 


 Gtr.1


 

 
 E|------------------|-------------------|-------------------|----------------|
 B|------------------|-------------------|-------------------|----------------|
 G|------------------|-------------------|-------------------|----------------|
 D|-10/12-12-12-12-x-|-3-3-3-3--10/12-12-|-12-15-12-12-10/12-|-12-12----------|
 A|-10/12-12-12-12-x-|-3-3-3-3--10/12-12-|-12-15-12-12-10/12-|-12-12----------|
 D|-10/12-12-12-12-x-|-3-3-3-3--10/12-12-|-12-15-12-12-10/12-|-12-12----------|

 


 


 Gtr.1


 

 
 E|------------------|-------------------|-------------------|----------------|
 B|------------------|-------------------|-------------------|----------------|
 G|------------------|-------------------|-------------------|----------------|
 D|-10/12-12-12-12-x-|-3-3-3-3--10/12-12-|-12-15-12-12-10/12-|-12-12----------|
 A|-10/12-12-12-12-x-|-3-3-3-3--10/12-12-|-12-15-12-12-10/12-|-12-12----------|
 D|-10/12-12-12-12-x-|-3-3-3-3--10/12-12-|-12-15-12-12-10/12-|-12-12----------|

 


 


 Gtr.1


 

 
 E|------------------|-------------------|-------------------|----------------|
 B|------------------|-------------------|-------------------|----------------|
 G|------------------|-------------------|-------------------|----------------|
 D|-10/12-12-12-12-x-|-3-3-3-3--10/12-12-|-12-15-12-12-10/12-|-12-12----------|
 A|-10/12-12-12-12-x-|-3-3-3-3--10/12-12-|-12-15-12-12-10/12-|-12-12----------|
 D|-10/12-12-12-12-x-|-3-3-3-3--10/12-12-|-12-15-12-12-10/12-|-12-12----------|

 


 


 ==================================================================================


 BRIDGE


 ==================================================================================


 


 Gtr.1


 

 
 E|------------|------------|------------|------------|------------|------------|
 B|------------|------------|------------|------------|------------|------------|
 G|-7--7--7--7-|-7--7--5--5-|-5--5--5--5-|-5--5--5--5-|-5--5--7--7-|-7--7--7--7-|
 D|-7--7--7--7-|-7--7--7--7-|-7--7--7--7-|-3--3--3--3-|-3--3--5--5-|-5--5--5--5-|
 A|-5--5--5--5-|-5--5--5--5-|-5--5--5--5-|-3--3--3--3-|-3--3--5--5-|-5--5--5--5-|
 D|------------|------------|------------|------------|------------|------------|

 


 


 Gtr.1


 

 
 E|------------|------------|------------|------------|------------|------------|
 B|------------|------------|------------|------------|------------|------------|
 G|-7--7--7--7-|-7--7--5--5-|-5--5--5--5-|-5--5--5--5-|-5--5--7--7-|-7--7--7--7-|
 D|-7--7--7--7-|-7--7--7--7-|-7--7--7--7-|-3--3--3--3-|-3--3--5--5-|-5--5--5--5-|
 A|-5--5--5--5-|-5--5--5--5-|-5--5--5--5-|-3--3--3--3-|-3--3--5--5-|-5--5--5--5-|
 D|------------|------------|------------|------------|------------|------------|

 


 Gtr.2


 

 
 E|------------|------------|------------|------------|------------|------------|
 B|------------|------------|------------|------------|------------|------------|
 G|------------|------------|------------|------------|------------|------------|
 D|------------|------------|------------|------------|------------|------------|
 A|--8--8--8--8|--8--8--7--7|--7--7--7--7|--8--8--8--8|--8--8--8--8|-5--5--5--5-|
 D|-12-12-12-12|-12-12-10-10|-10-10-10-10|-12-12-12-12|-12-12-12-12|-8--8--8--8-|

 


 


 Gtr.1


 

 
 E|------------|------------|------------|------------|------------|------------|
 B|------------|------------|------------|------------|------------|------------|
 G|-7--7--7--7-|-7--7--5--5-|-5--5--5--5-|-5--5--5--5-|-5--5--7--7-|-7--7--7--7-|
 D|-7--7--7--7-|-7--7--7--7-|-7--7--7--7-|-3--3--3--3-|-3--3--5--5-|-5--5--5--5-|
 A|-5--5--5--5-|-5--5--5--5-|-5--5--5--5-|-3--3--3--3-|-3--3--5--5-|-5--5--5--5-|
 D|------------|------------|------------|------------|------------|------------|

 


 Gtr.2


 

 
 E|------------|------------|------------|------------|------------|------------|
 B|------------|------------|------------|------------|------------|------------|
 G|------------|------------|------------|------------|------------|------------|
 D|------------|------------|------------|------------|------------|------------|
 A|--8--8--8--8|--8--8--7--7|--7--7--7--7|--8--8--8--8|--8--8--8--8|-5--5--5--5-|
 D|-12-12-12-12|-12-12-10-10|-10-10-10-10|-12-12-12-12|-12-12-12-12|-8--8--8--8-|

 


 


 Gtr.1


 

 
 E|------------|------------|------------|------------|------------|------------|
 B|------------|------------|------------|------------|------------|------------|
 G|-7--7--7--7-|-7--7--5--5-|-5--5--5--5-|-5--5--5--5-|-5--5--7--7-|-7--7--7--7-|
 D|-7--7--7--7-|-7--7--7--7-|-7--7--7--7-|-3--3--3--3-|-3--3--5--5-|-5--5--5--5-|
 A|-5--5--5--5-|-5--5--5--5-|-5--5--5--5-|-3--3--3--3-|-3--3--5--5-|-5--5--5--5-|
 D|------------|------------|------------|------------|------------|------------|

 


 Gtr.2


 

 
 E|------------|------------|------------|------------|------------|------------|
 B|------------|------------|------------|------------|------------|------------|
 G|------------|------------|------------|------------|------------|------------|
 D|------------|------------|------------|------------|------------|------------|
 A|--8--8--8--8|--8--8--7--7|--7--7--7--7|--8--8--8--8|--8--8--8--8|-5--5--5--5-|
 D|-12-12-12-12|-12-12-10-10|-10-10-10-10|-12-12-12-12|-12-12-12-12|-8--8--8--8-|

 


 Gtr.3


 

 
 E|-20b(1)20b(1)-20b(1)22b(1)-22b(1)22b(1)-24b(1)24b(1)-24b(1)24b(2)-24b(2)24b(2)-|
 B|-------------------------------------------------------------------------------|
 G|-------------------------------------------------------------------------------|
 D|-------------------------------------------------------------------------------|
 A|-------------------------------------------------------------------------------|
 D|-------------------------------------------------------------------------------|

 


 


 ==================================================================================


 PRE-CHORUS


 ==================================================================================


 


 Gtr.1


 

 
 E|-------------------|-------------------|-------------------|-------------------|
 B|-------------------|-------------------|-------------------|-------------------|
 G|-------------------|-------------------|-------------------|-------------------|
 D|-10--0--3/5-3--0-0-|-10--0--3/5-3--3-3-|-10--0--3/5-3--0-0-|-10--0--3/5-3--3-3-|
 A|-10--0--3/5-3--0-0-|-10--0--3/5-3--3-3-|-10--0--3/5-3--0-0-|-10--0--3/5-3--3-3-|
 D|-10--0--3/5-3--0-0-|-10--0--3/5-3--3-3-|-10--0--3/5-3--0-0-|-10--0--3/5-3--3-3-|

 


 


 ==================================================================================


 CHORUS 2


 ==================================================================================


 


 Gtr.1


 

 
 E|------------------|-------------------|------------------|-----------------|
 B|------------------|-------------------|------------------|-----------------|
 G|------------------|-------------------|------------------|-----------------|
 D|-10/12-12-12-12-x-|-3-3-3-3--10/12-12-|-12-12-x-15-15-15-|-15--------------|
 A|-10/12-12-12-12-x-|-3-3-3-3--10/12-12-|-12-12-x-15-15-15-|-15--------------|
 D|-10/12-12-12-12-x-|-3-3-3-3--10/12-12-|-12-12-x-15-15-15-|-15--------------|

 


 


 Gtr.1


 

 
 E|------------------|-------------------|-------------------|----------------|
 B|------------------|-------------------|-------------------|----------------|
 G|------------------|-------------------|-------------------|----------------|
 D|-10/12-12-12-12-x-|-3-3-3-3--10/12-12-|-12-15-12-12-10/12-|-12-12----------|
 A|-10/12-12-12-12-x-|-3-3-3-3--10/12-12-|-12-15-12-12-10/12-|-12-12----------|
 D|-10/12-12-12-12-x-|-3-3-3-3--10/12-12-|-12-15-12-12-10/12-|-12-12----------|

 


 


 Gtr.1


 

 
 E|------------------|-------------------|-------------------|----------------|
 B|------------------|-------------------|-------------------|----------------|
 G|------------------|-------------------|-------------------|----------------|
 D|-10/12-12-12-12-x-|-3-3-3-3--10/12-12-|-12-15-12-12-10/12-|-12-12----------|
 A|-10/12-12-12-12-x-|-3-3-3-3--10/12-12-|-12-15-12-12-10/12-|-12-12----------|
 D|-10/12-12-12-12-x-|-3-3-3-3--10/12-12-|-12-15-12-12-10/12-|-12-12----------|

 


 


 Gtr.1


 

 
 E|------------------|-------------------|-------------------|----------------|
 B|------------------|-------------------|-------------------|----------------|
 G|------------------|-------------------|-------------------|----------------|
 D|-10/12-12-12-12-x-|-3-3-3-3--10/12-12-|-12-15-12-12-10/12-|-12-12----------|
 A|-10/12-12-12-12-x-|-3-3-3-3--10/12-12-|-12-15-12-12-10/12-|-12-12----------|
 D|-10/12-12-12-12-x-|-3-3-3-3--10/12-12-|-12-15-12-12-10/12-|-12-12----------|

 


 


 ==================================================================================


 


 **********************************************************************************


 Lyrics-


 **********************************************************************************


 


 **********************************************************************************


 Guitar Legend-


 **********************************************************************************


 


 

 
 h ------------Hammer-On
 p ------------Pull-Off
 b ------------Bend : (1/2)-half bend : (1) or (full)-full bend

 


 (1-1/2)-one and a half bend : (2)-double full bend


 


 

 
 pb -----------Pre-Bend
 r ------------Bend Release ( if there is no number after r,

 


 release immediately )


 

 
 / ------------Slide Into
 \ ------------Slide Out Of
 s ------------Legato Slide
 S ------------Shift Slide
 - ------------Natural Harmonic
 [n] ----------Artifitial Harmonic
 n[n] ---------Tapped Harmonic
 ~ ------------Vibrato
 tr -----------Trill
 T ------------Tap
 TR -----------Trem. Picking
 PM -----------Palm Muting
 \n/ ----------Tremolo Bar Dip; n - Amount to Dip
 \n -----------Tremolo Bar Down
 n/ -----------Tremolo Bar Up
 /n\ ----------Tremolo Bar Inverted Dip
 = ------------Hold Bend; Also Acts As Connecting Devise 

 


 For Hammer-Ons/Pull-Offs


 

 
 < ------------Volume Swell Louder
 > ------------Volume Swell Softer
 x ------------Muted Slash
 o ------------Single Note Slash


Important: The song above is NOT stored on the Chordie server. The original song is hosted at www.guitaretab.com. Chordie works as a search engine and provides on-the-fly formatting. Chordie does not index songs against artists'/composers' will. To remove this song please click here.

This song is displayed as text-only. Transposing and tuning is only available for chordpro-songs.
Rate #0 of 2 versions

Jango Player

Login - add to songbook

SHARE PAGE  




You need to log in to post comments