Guitar Tabs, Chords and Lyrics
Major upgrade!! After one year development the new version of Chordie is now online! Please give feedback.


Kanto  Siakol

kanto by siakol
ear tabber:bRyAn hussEin dAno
schooL:Mindanao State University
anti-bwisits!!!!!!!!!!!!!!!!!!!
Intro:E-G#-A-B 4x
 
 e|-13-14^------12-12-13--13-15-13/15-14^-------12-12-13--13-15-13/15-14^---|
 G|-------13-13---------------------------13--13-------------------------13-|
 B|-------------------------------------------------------------------------|
 D|-------------------------------------------------------------------------|
 A|-------------------------------------------------------------------------|
 E|-------------------------------------------------------------------------|

[E-G#-A-B]nakatambay sa may kanto nagiisip ng kung anu-ano
and ang nagdaang mga araw ay ating binabalik-tanaw
[E-G#-A-B]  
[E-G#-A-B]parang ulap ang umaga nasaan kaya ang barkada
ok sana kung may pera upang ako ay nakasama
REFRAIN:
[G#-A]masakit tanggapin
ang katootohanan
kunga wala kang pera
[G#-B]wala ka ring kaibigan
E-G#-A-B 2x
 
 e|-13-14^------12-12-13--13-15-13/15-14^-------12-12-13--13-15-13/15-14^---|
 G|-------13-13---------------------------13--13-------------------------13-|
 B|-------------------------------------------------------------------------|
 D|-------------------------------------------------------------------------|
 A|-------------------------------------------------------------------------|
 E|-------------------------------------------------------------------------|

[E-G#-A-B]nakakasama mga tropa sa inuman akoy gitarista
umaawit parang ibon ayus na rin akoy naroroon
[E-G#-A-B]  
[E-G#-A-B]balang araw konting tiyaga makatitipid na rin ng nilaga
bahay at lupa, maraming pera pagkat akoy makakasama mo na
REFRAIN
E-G#-A-B 2x
REFRAIN
drumbeat....
E-G#-A-B 2x
nakatambay sa may kanto naiinip sa bayang ito
nakangiti, nakatawa, nababaliw na sa problema
E-G#-A-B 4x
 
 e|-13-14^------12-12-13--13-15-13/15-14^-------12-12-13--13-15-13/15-14^-17-|
 G|-------13-13---------------------------13--13-----------------------------|
 B|--------------------------------------------------------------------------|
 D|--------------------------------------------------------------------------|
 A|--------------------------------------------------------------------------|
 E|--------------------------------------------------------------------------|


Important: The song above is NOT stored on the Chordie server. The original song is hosted at www.guitaretab.com. Chordie works as a search engine and provides on-the-fly formatting. Chordie does not index songs against artists'/composers' will. To remove this song please click here.

Text color:
Chord color:
Chord grids: 
Font size:    
Page size: 

G#-A
Rate #1 of 3 versions

Jango Player

Login - add to songbook

SHARE PAGE  




You need to log in to post comments