Guitar Tabs, Chords and Lyrics
Server problems seems to be fixed. Chordie has been experiencing problems with songs disappearing. These issues now seems to be fixed, but still verifying the fix. If you find anything strange, please email admin@chordie.com.


Na soncu  Siddharta

Intro:
A E Hm F#m --> 2x
[A] Jaz ne morem več [E]v temi ?iveti,
[Bm] jaz bi hodu na soncu,
[F#m] jaz bi hotu tebe imet.
[A] Zdaj ne rabim več[E] ostalih stvari,
[Bm] Sam ?e svoje sanje
[F#m] In človeka kot si ti.
[A] Mislim da sem vidu ?[E]e ogromn lepih slik
[Bm] Ampak dvomu sem vase
[F#m] nehal trest mi je kosti.
[A] Zdaj počivam na[E] otoku
[Bm] in si zidam gradove
[F#m] v njih srečo lovim.
 
 e|------------------------------------------------------|
 B|------------------------------------------------------|
 G|------------------------------------------------------|
 D|------------------------------------------------------|
 A|--------2---------2--2--------------------------------|
 E|-0-2-5--0---------0--0--------------------------------|

........
let ring
Ker ne [D5]verjamem v t[A5]elo,
Rad bi te[C#5] vidu v s[F#5]rce.
Jaz ne [D5]verjamem v t[A5]elo,
Rad bi te[C#5] vidu v s[F#5]rce.
 
 e|----------------------------------------------------|
 B|----------------------------------------------------|
 G|----------------------------------------------------|
 D|----------------------------------------------------|
 A|--------------7-5--4-2------------------------------|
 E|-0-2-5--0-------------------------------------------|

[A] Kt da bi vidu svojo[E] dramo vnaprej
[Bm] Iz nje sem brisu ?alost
[F#m] In dodajau svoj nasmeh.
[A] Vsako du?o, ki me[E] gleda v oči,
[Bm] Sem povabu zraven,
[F#m] Naj ?e ona to do?vi.
[A] Preden svoj obraz v[E] solze potopim,
[Bm] Zlate solze sreče,
[F#m] Preden od dobrega znorim,
[A] Rad bi vidu, da ?e[E] ti gre? z nami,
[Bm] Skupi bomo vidl,
[F#m] Kaj pomeni adrenalin.
 
 e|----------------------------------------------------|
 B|----------------------------------------------------|
 G|----------------------------------------------------|
 D|----------------------------------------------------|
 A|--------2---------7--7------------------------------|
 E|-0-2-5--0---------0--0------------------------------|

........
let ring
Ker ne [D5]verjamem v t[A5]elo,
Rad bi te[C#5] vidu v s[F#5]rce.
Jaz ne [D5]verjamem v t[A5]elo,
Rad bi te[C#5] vidu v s[F#5]rce.
 
 e|----------------------------------------------------|
 B|----------------------------------------------------|
 G|----------------------------------------------------|
 D|----------------------------------------------------|
 A|----------------------------------------------------|
 E|-0-2-5--0-------------------------------------------|

Solo:
 
 e|----------------------------------------------------|
 B|-3-4--4------3----4-4--3-4-3------------------------|
 G|-3-4--4--4-4---4--4-4--3-4-3------------------------|
 D|----------------------------------------------------|
 A|----------------------------------------------------|
 E|----------------------------------------------------|
 e|----------------------------------------------------|
 B|-3-4--4------3----4-4--3-4-3------------------------|
 G|-3-4--4--4-4---4--4-4--3-4-3------------------------|
 D|----------------------------------------------------|
 A|----------------------------------------------------|
 E|----------------------------------------------------|
 e|----------------------------------------------------|
 B|-3-4--4------3----4-4--3-4-3------------------------|
 G|-3-4--4--4-4---4--4-4--3-4-3------------------------|
 D|----------------------------------------------------|
 A|----------------------------------------------------|
 E|----------------------------------------------------|
 e|----------------------------------------------------|
 B|-3-4--4------3----4-4--3-4-3------------------------|
 G|-3-4--4--4-4---4--4-4--3-4-3------------------------|
 D|----------------------------------------------------|
 A|----------------------------------------------------|
 E|----------------------------------------------------|
 e|----------------------------------------------------|
 B|-5-7-7------6----7-7--5-7-5-------------------------|
 G|-5-7-7--7-7---7--7-7--5-7-5-------------------------|
 D|----------------------------------------------------|
 A|----------------------------------------------------|
 E|----------------------------------------------------|
 e|----------------------------------------------------|
 B|-5-7-7------6----7-7--5-7-5-------------------------|
 G|-5-7-7--7-7---7--7-7--5-7-5-------------------------|
 D|----------------------------------------------------|
 A|----------------------------------------------------|
 E|----------------------------------------------------|
 e|----------------------------------------------------|
 B|-8-9--9------8----9-9--8-9-8------------------------|
 G|-8-9--9--9-9---9--9-9--8-9-8------------------------|
 D|----------------------------------------------------|
 A|----------------------------------------------------|
 E|----------------------------------------------------|
 e|----------------------------------------------------|
 B|--11-11-11-11-11-11-11-11-11-11...------------------|
 G|--11-11-11-11-11-11-11-11-11-11...------------------|
 D|----------------------------------------------------|
 A|----------------------------------------------------|
 E|----------------------------------------------------|

Tihi del:
 
 e|----------------------------------------------------|
 B|----------------------------------------------------|
 G|----------------------------------------------------|
 D|-------------4-4-7-7-4-4----------------------------|
 A|----------5-5-----------------------4-4-7-7-4-4-----|
 E|--------------------------------5-5-----------------|

PM.......................................
Ker ne verjamem v telo Rad bi te vidu...
 
 e|-----------------------------------------------------|
 B|-----------------------------------------------------|
 G|-----------------------------------------------------|
 D|-------------3-3-6-6-3-3-----------------------------|
 A|----------4-4-----------------------0-0-2-2-4-4------|
 E|--------------------------------2-2------------------|

PM.......................................
...v srce
 
 e|----------------------------------------------------|
 B|----------------------------------------------------|
 G|----------------------------------------------------|
 D|-------------4-4-7-7-4-4----------------------------|
 A|----------5-5-----------------------4-4-7-7-4-4-----|
 E|--------------------------------5-5-----------------|

PM.......................................
Jz ne verjamem v telo Rad bi te vidu...
 
 e|----------------------------------------------------|
 B|----------------------------------------------------|
 G|----------------------------------------------------|
 D|-------------3-3-6-6-3-3----------------------------|
 A|----------4-4-----------------------0-0-2-2-4-4-----|
 E|--------------------------------2-2-----------------|

PM.......................................
...v srce
 
 e|----------------------------------------------------|
 B|----------------------------------------------------|
 G|----------------------------------------------------|
 D|-------------4-4-7-7-4-4----------------------------|
 A|----------5-5-----------------------4-4-7-7-4-4-----|
 E|--------------------------------5-5-----------------|

PM.......................................
Ker ne verjamem v telo Rad bi te vidu...
 
 e|----------------------------------------------------|
 B|----------------------------------------------------|
 G|----------------------------------------------------|
 D|-------------3-3-6-6-3-3----------------------------|
 A|----------4-4-----------------------0-0-2-2-4-4-----|
 E|--------------------------------2-2-----------------|

PM.......................................
...v srce
 
 e|----------------------------------------------------|
 B|----------------------------------------------------|
 G|----------------------------------------------------|
 D|-------------4-4-7-7-4-4----------------------------|
 A|----------5-5-----------------------4-4-7-7-4-4-----|
 E|--------------------------------5-5-----------------|

PM.......................................
Jz ne verjamem v telo Rad bi te vidu...
 
 e|----------------------------------------------------|
 B|----------------------------------------------------|
 G|----------------------------------------------------|
 D|-------------3-3-6-6-3-3----------------------------|
 A|----------4-4-----------------------0-0-2-2-4-4-----|
 E|--------------------------------2-2-----------------|

PM.......................................
...vidu, vidu
Jaz ne [D5]verjamem v t[A5]elo,
Rad bi te[C#5] vidu v s[F#5]rce.
Ker ne [D5]verjamem v t[A5]elo,
Rad bi te[C#5] vidu, vi[F#5]du, vidu...
D5 A5 C#5 F#5 --> 2x
 
 e|----------------------------------------------------|
 B|----------------------------------------------------|
 G|----------------------------------------------------|
 D|----------------------------------------------------|
 A|--------2-------------------------------------------|
 E|-0-2-0--0-------------------------------------------|


Important: The song above is NOT stored on the Chordie server. The original song is hosted at www.guitaretab.com. Chordie works as a search engine and provides on-the-fly formatting. Chordie does not index songs against artists'/composers' will. To remove this song please click here.

Text color:
Chord color:
Chord grids: 
Font size:    
Page size: 

A A5 Bm C#5 D5 E F#5 F#m
Rate #2 of 2 versions

Jango Player

Login - add to songbook

SHARE PAGE  



You need to log in to post comments