Guitar Tabs, Chords and Lyrics
Server problems seems to be fixed. Chordie has been experiencing problems with songs disappearing. These issues now seems to be fixed, but still verifying the fix. If you find anything strange, please email admin@chordie.com.


A (Very) Little Respect  Silence 4

Silence 4 - "A (very) little respect"
Album - Silence Becomes it
=================================================
=================================================
Tab by s h a k i
=================================================
=================================================
[C]  
 
 |---------0---------------0-------|---------0---------------0-------|
 |-------3---3---3-------3---3---3-|-------3---3---3-------3---3---3-|
 |-5---5-------5---5---5-------5---|-5---5-------5---5---5-------5---|
 |---5---------------5-------------|---5---------------5-------------|
 |---------------------------------|---------------------------------|
 |---------------------------------|---------------------------------|

I try to discover, a little something to
[G] [E]  
 
 |---5---5---5---5---5---5---5---5-|-0---0---0-----------------------|
 |-8---8---8---8---8---8---8---8---|-5---5---5---5---5---5---5---5---|
 |-7---7---7---7---7---7---7---7---|---5---5-4-4---4---4---4---4---4-|
 |---------------------------------|---------------------------------|
 |---------------------------------|---------------------------------|
 |---------------------------------|---------------------------------|

make me sweeter refrain from breaking
[F]  
 
 |---------------3-5---5---3---3---|-7h8p7h8p7\5---------------------|
 |-6---6-6-6---6-6-6---6---6---6---|-------------8-6-----------------|
 |---5---5-5-5---5---5---5---5---5-|---------------5-----------------|
 |---------------------------------|---------------0-----------------|
 |---------------------------------|---------------------------------|
 |---------------------------------|---------------------------------|

my heart I'm so in
[C] [G]  
 
 |---------0---------------0-------|---5---5---5---5-7---7---7---7---|
 |-------3---3---3-------3---3---3-|-8---8---8---8-----8---8---8---8-|
 |-5---5-------5---5---5-------5---|-7---7---7---7-----7---7---7---7-|
 |---5---------------5-------------|---------------------------------|
 |---------------------------------|---------------------------------|
 |---------------------------------|---------------------------------|

love with you, I'll be forever blue, that you give me no
[F] [Am]  
 
 |---------------------------------|---------------------------------|
 |-6---6---6---6-------------8-----|---------------------------------|
 |---5---5---5---5--------5-----5--|---------------------------------|
 |---------------------5-----------|-5-------------------------------|
 |------------------0--------------|----0----------------------------|
 |---------------------------------|---------------------------------|

reason, why are you making me work so hard
[C] [G] [Am] [G]  
 
 |---------------3-----------------|-3-------------3-----------------|
 |---------------3-----------------|-1-------------3-----------------|
 |-5-------------4-----------------|-2-------------4-----------------|
 |-5-------------5-----------------|-2-------------5-----------------|
 |-3-------------------------------|-0-------------------------------|
 |---------------------------------|---------------------------------|

that you give no, you give no you give me no, you give me no
[C] [Am]  
 
 |---------0---------------0-------|---------------------------------|
 |-------3---3---3-------3---3---3-|---------0---------------0-------|
 |-5---5-------5---5---5-------5---|-------5---5---5-------5---5---5-|
 |---5---------------5-------------|-7---7-------7---7---7-------7---|
 |---------------------------------|---7---------------7-------------|
 |---------------------------------|---------------------------------|

soul, I hear you calling
F Dm7? Am F G
 
 |---------------------------------|---------------------------------|
 |---------8---------------6-------|---------8--------6--------8-----|
 |-------5---5---5-------5---5---5-|-------5---5---5----5---5--7---7-|
 |-7---7-------7---7---7-------7---|-5---5-------5--------5------5---|
 |---8---------------5-------------|---0-----------------------------|
 |---------------------------------|---------------------------------|

please give a little respect to
[C]  
 
 |---------0---------------0-------|---------0---------------0-------|
 |-------3---3---3-------3---3---3-|-------3---3---3-------3---3---3-|
 |-5---5-------5---5---5-------5---|-5---5-------5---5---5-------5---|
 |---5---------------5-------------|---5---------------5-------------|
 |---------------------------------|---------------------------------|
 |---------------------------------|---------------------------------|

me tu ru ru
[A#] [G]  
 
 |--------[12]--------------[12]---|---------3------3----------------|
 |----------------0----------------|-------0---0----0----------------|
 |---10--10---10-------10--10--10--|-5---5-------5--5----------------|
 |-8---8--------8----8---8-------8-|---5------------5----------------|
 |---------------------------------|---------------------------------|
 |---------------------------------|---------------------------------|

ru ru tu ru ru I'm so in
[C] [G] [F]  
 
 |-------0-3-----------------------|-3-----5-7h8p7h8p7\5-------------|
 |-1-----1-1---1---1---1---1---1---|---3-----------------8-6---------|
 |-0---0-------0---0---0---0---0---|-----0-----------------5---------|
 |---2-------2---2---2---2---2---2-|-----------------------0---------|
 |-3-----3-3-----------------------|---------------------------------|
 |---------------------------------|-3-------------------------------|

love with you, I'll be forever blue... that you give me
[F] [G] [F] [Am]  
 
 |---------------------------------|---------------------------------|
 |-6---6---8---8---6---6-----------|-8-------------------------------|
 |-5---5---5---5---5---5---------5-|----5----------------------------|
 |---3---3---5---5---3---3----5----|-------5-------------------------|
 |-------------------------0-------|----------0----------------------|
 |---------------------------------|---------------------------------|

reason, why are you making me work so hard
[C] [G] [Am] [G]  
 
 |---------------3-----------------|-3-------------3-----------------|
 |---------------3-----------------|-1-------------3-----------------|
 |-5-------------4-----------------|-2-------------4-----------------|
 |-5-------------5-----------------|-2-------------5-----------------|
 |-3-------------------------------|-0-------------------------------|
 |---------------------------------|---------------------------------|

that you give no, you give no you give me no, you give me no
[C] [Am]  
 
 |---------0---------------0-------|---------------------------------|
 |-------3---3---3-------3---3---3-|---------0---------------0-------|
 |-5---5-------5---5---5-------5---|-------5---5---5-------5---5---5-|
 |---5---------------5-------------|-7---7-------7---7---7-------7---|
 |---------------------------------|---7---------------7-------------|
 |---------------------------------|---------------------------------|

soul, I hear you calling
F Dm7? Am F G
 
 |---------------------------------|---------------------------------|
 |---------8---------------6-------|---------8--------6--------8-----|
 |-------5---5---5-------5---5---5-|-------5---5---5----5---5--7---7-|
 |-7---7-------7---7---7-------7---|-5---5-------5--------5------5---|
 |---8---------------5-------------|---0-----------------------------|
 |---------------------------------|---------------------------------|

please give a little respect to
[C]  
 
 |---------0---------------0-------|---------0-----------------------|
 |-------3---3---3-------3---3---3-|-------3---3---3-----------------|
 |-5---5-------5---5---5-------5---|-5---5-------5-------------------|
 |---5---------------5-------------|---5-----------------------------|
 |---------------------------------|-----------------3---------------|
 |---------------------------------|---------------------------------|

me

Important: The song above is NOT stored on the Chordie server. The original song is hosted at www.guitaretab.com. Chordie works as a search engine and provides on-the-fly formatting. Chordie does not index songs against artists'/composers' will. To remove this song please click here.

Text color:
Chord color:
Chord grids: 
Font size:    
Page size: 

A# Am C E F G
Rate #1 of 2 versions

Login - add to songbook

SHARE PAGE  




You need to log in to post comments