Guitar Tabs, Chords and Lyrics
Server problems seems to be fixed. Chordie has been experiencing problems with songs disappearing. These issues now seems to be fixed, but still verifying the fix. If you find anything strange, please email admin@chordie.com.


Abot Langit  Silent Sanctuary

Title: Abot Langit
Album: Monodramatic (2013)
Tabbed By: Allan Guab Amisola (Lanzkie)
E-mail: kogure_18spider@yahoo.com
Date/Time: February 22, 2014 / 7:31 pm
Song Link: http://www.youtube.com/watch?v=8oYm1P5rFkI#aid=P-1qz1_YyBc
Tuning: Standard
This is 99.9% ACCURATE ^_^
a sweet and calm song for admiring someone...
...to Rej, who taught me the meaning of sacrifice
and how to love unconditionally...
Recommended Chords:
C -x32010
Cadd9 -x32033
C/G -332010
Dm -xx0231
E -022100
Em -022000
[F] [-133211]  
[Fm] [-133111]  
[G] [-355433]  
[Gm]G/B [-355333]-x20033
Am -x02210
Am+M7 -x02110
A7 -x02020
Bb -x1x331
Bb7 -x13131
[Verse 1] 
Lumi[Am]wanag bagong [Am+M7]araw
Dahan-[Am]dahang natu[Gm]tunaw ang [C]aking dam[F]damin
Ikaw na [Fm]ngang para [Bb7]sa akin
[Interlude] 
[F] [C/G] [G/B] [Cadd9] [F] [C/G] [G/B] [C]  
 
 e|------------------------------0--------------------x----x-----|
 B|------1------1-------3----------3--------1------1--3----1-----|
 G|----0------0-------0--------0----------0------0----0----0-----|
 D|--3-----------------------2----------3-------------0----2-----|
 A|-----------------2------3--------------------------2----3-----|
 E|---------3----------------------------------3------x----x-----|

[Verse 2] 
A[F]yoko na munang,[G/B] u[Cadd9]mibig
[F] Itutulak pala[G/B]yo ang [Cadd9]sinuman
[F] Kalilimutan[G/B] mag ma[Cadd9]hal
[F] Dibaleng magisa ang [G/B]puso'y [Cadd9]ligtas nama[Dm]n
[Dm] Kayta[Am]gal kong [G]nagi[Dm]sa at ikaw [G]nga'y dumating
[Refrain] 
[C]Habang luma[A7]lalim akoy nahu[Bb]hulog na
Ikay gus[Fm]tong laging ka[Bb7]sama
[C]Dahil manana[A7]himik na sana e[Bb]wan ko ba
Ng maki[Fm]lala ki[Em]ta abot [Dm]langit [G]ang sa[F-]ya[G-] [G/B-] [C]
[Verse 3] 
(recommended plucking until before the D minor chord)
 
 e|------------------------------0-------------------------------|
 B|------1------1-------3----------3-----------------------------|
 G|----0------0-------0--------0---------------------------------|
 D|--3------3----------------2-----------------------------------|
 A|-----------------2------3-------------------------------------|
 E|--------------------------------------------------------------|

(chords same as Verse 2)
Lahat ng kulang napuno
Binuhay mo ang natulog kong puso
Di akalain manunumbalik
Kung pano mag mahal kung pano masabik
Natuyo na ang luha
dahil nanjan ka na
[Refrain 2] 
[C]Habang luma[A7]lalim akoy nahu[Bb]hulog na
Ikay gus[Fm]tong laging ka[Bb7]sama
[C]Dahil manana[A7]himik na sana e[Bb]wan ko ba
[E]aa[--]ahh...
[Adlib] 
 
 C-A7-Bb-Fm-Bb7--C-A7-Bb-(then)

Ng maki[Fm]lala ki[Em]ta abot [Dm]langit[G]
[Last Refrain] 
[C]Habang luma[A7]lalim akoy nahu[Bb]hulog na
Ikay gus[Fm]tong laging ka[Bb7]sama
[C]Dahil manana[A7]himik na sana e[Bb]wan ko ba
Ng maki[Fm]lala ki[Em]ta abot [Dm]langit [G]ang sa[F]ya[G]
Abot [G/B]langit [C]ang sa[F]ya[G]
Abot [G/B]langit [C]ang sa[F]ya[G]
Abot [G/B]langit [C]ang sa[F]ya[G] [G/B] [C]

Important: The song above is NOT stored on the Chordie server. The original song is hosted at www.guitaretab.com. Chordie works as a search engine and provides on-the-fly formatting. Chordie does not index songs against artists'/composers' will. To remove this song please click here.

Text color:
Chord color:
Chord grids: 
Font size:    
Page size: 

A7 Am Bb Bb7 C C/G Cadd9 Dm E Em F Fm G G/B Gm
Rate #1 of 6 versions

Jango Player

Login - add to songbook

SHARE PAGE  




You need to log in to post comments