Guitar Tabs, Chords and Lyrics
Server problems seems to be fixed. Chordie has been experiencing problems with songs disappearing. These issues now seems to be fixed, but still verifying the fix. If you find anything strange, please email admin@chordie.com.


Worlds Apart  Silverstein

Arrivals And Departures
Key: C#
Tuning: Standard EADGBe
Chords used:
C# - x46664
G#/C - x365xx
[G#]Bbm[-] - [466544]x13321
[F#] [-] [244322]  
[Fm] [-] [133111]  
Intro:
[C#] Lying all a[G/C]lone
wishing you would [Bbm]call
Writing all my [G#]thoughts
has broken all my [C#]bones
You gave it all up
[G#/C] you threw it all a[Bbm]way
There's nothing I can [F#]do
Do this riff at Intro:
[C#] [G#/C] [Bbm] [G#]  
 
 e|-------|-------|-------|-------|
 B|-4-----|-4-----|-2-----|---4---|
 G|---6---|---6---|---1---|-6---5-|
 D|-----6-|-----6-|-----4-|-------|
 A|-4-----|-3-----|-1-----|-------|
 E|-------|-------|-------|-4-----|

[C#] [G#/C] [Bbm] [F#]  
 
 e|-------|-------|-------|--------------|
 B|-4-----|-4-----|-2-----|--------------|
 G|---6---|---6---|---1---|--------------|
 D|-----6-|-----6-|-----4-|-4-4-4--4-4-4-|
 A|-4-----|-3-----|-1-----|-4-4-4--4-4-4-|
 E|-------|-------|-------|-2-2-2--2-2-2-|

Distortion
Verse 1:
Growl:
[Bbm]What do I [C#]think you've done?
Sing:
You [G#]know it's even
[F#]worse than what's in
Growl:
[Bbm] my [C#]head
Sing:
You [G#]don't believe
me [F#]when I tell you
[Fm] I don't [F#]want to be a
[C#]fraud and pretend
that everything's [Fm]fine
I won't be [F#]here
when you get [G#]home
(hold)
I'm not gonna sit
here and die!
Chorus 1:
[C#] I'll follow through
again this [F#]time
I'll swallow swords
spit out my [Bbm]pride
I'll [G#]be just [F#]fine
Verse 2:
Growl:
[Bbm]You read me [C#]like a book
Sing:
you [G#]know I'm running
[F#]out of legs to
Growl:
[Bbm] stand [C#]on
Sing:
I [G#]won't believe
you [F#]when you tell me
[Fm] These old [F#]habits
die so [C#]hard
there's no
intervention in [Fm]sight
There's no [F#]point
in calling [G#]you
(hold)
We're just gonna
stand here and fight
(Repeat Chorus 1)
Chorus 2:
[C#] You fill my head
with endless [F#]lies
You're killing me
I'm killing [Bbm]time
I'll [G#]be just [F#]fine
then C#(hold)
Interlude: until bridge
[C#] [G#/C] [Bbm] [G#]  
 
 e|-------|-------|-------|-------|
 B|-4-----|-4-----|-2-----|---4---|
 G|---6---|---6---|---1---|-6---5-|
 D|-----6-|-----6-|-----4-|-------|
 A|-4-----|-3-----|-1-----|-------|
 E|-------|-------|-------|-4-----|

Bridge:
[C#] So maybe one [G#/C]day
the pain will go a[Bbm]way
and I will see your [G#]face
I won't even [F#]care
I'm changing all the locks
(hold)
cause I can't change you
(Repeat Chorus 1 and Chorus 2)
(Repeat Chorus 1 and Chorus 2)
Outro: C#

Important: The song above is NOT stored on the Chordie server. The original song is hosted at www.guitaretab.com. Chordie works as a search engine and provides on-the-fly formatting. Chordie does not index songs against artists'/composers' will. To remove this song please click here.

Text color:
Chord color:
Chord grids: 
Font size:    
Page size: 

Bbm C# F# Fm G# G#/C G/C
Rate #3 of 6 versions

Jango Player

Login - add to songbook

SHARE PAGE  



You need to log in to post comments