Guitar Tabs, Chords and Lyrics
Server problems seems to be fixed. Chordie has been experiencing problems with songs disappearing. These issues now seems to be fixed, but still verifying the fix. If you find anything strange, please email admin@chordie.com.


Massachusetts  Silverstein

This is How the Wind Shifts
2013
Massachusetts (Acoustic)
Tuning: Half Step Down
(tab for the solo is at bottom)
CHORDs: Gadd11:
Am: D: (I'll abbrev. to G11) G:
 
 eb |-------| |---x---| |-------| |-------|
 Bb |---1---| |---3---| |---1---| |---0---|
 Gb |---2---| |---2---| |---0---| |---0---|
 Db |---2---| |---0---| |---0---| |---0---|
 Ab |---0---| |-------| |---2---| |---2---|
 Eb |-------| |-------| |---3---| |---3---|

F: C: Em: G: G#m#5:
 
 |---(1)---| |-------| |--------| |---3----| |-------|
 |----1----| |---1---| |----0---| |---3----| |-------|
 |----2----| |---0---| |----0---| |---0----| |-------|
 |----3----| |---2---| |----2---| |---0----| |---2---|
 |----3----| |---3---| |----2---| |---x----| |---2---|
 |----1----| |-------| |----0---| |---3----| |---4---|

INTRO:
Am, D, G11, Gmaj
VERSE:
She's cutting [Am]out the bruises
[F]Forgetting her [Gmaj]excuses for being[Am] here again
With a s[F]uitcase packed and [C]waiting[Gmaj] by the d[Am]oor
In her head
C[F]onvinced herself she h[Gmaj]asn't lost
[Am]Enough to quit
But t[F]onight she lays here [Am]thinking
PRE-CHORUS:
[Gmaj]What if [F]I just left
[G11]In the m[Gmaj]iddle [Em]of th[F]e night
[Gmaj]Back to C[Gmaj]alifornia
G11 (Just bottom 3 strings)
And never look back
CHORUS:
[Am]She'll fantas[F]ize about it
[Gmaj]Every single [G]day but she can't[F] find it
In her h[G]eart to run a[Am]way
And [C]no one's listening
[Am]With Northern [F]Massachusetts
[C]On his knees to [G]stay
He's begging
[F]"Please, oh baby p[G]lease, I can ex[Am]plain
It won't happen aga[F]aaaaa[G]in"
VERSE:
He's putting [Am]out the fires
And he's ma[F]king her b[C]elieve
[Gmaj]He's really c[Am]hanged
This time
But it's ob[F]vious it's[Gmaj] just another [Am]line
Lapse and relapse
And agai[F]n she lays beside [C]him t[Gmaj]hinking:
PRE-CHORUS:
[F]I'll pre[Gmaj]tend in the m[G11]iddle[Gmaj] of t[Em]he [F]night
[Gmaj]My eyes are closed I'm s[Gmaj]leeping
G11 (Just bottom 3 strings)
But I won't come back
CHORUS:
[Am]She'll fantas[F]ize about it
[Gmaj]Every single d[G]ay but she can't find it[F]
In her h[G]eart to run away[Am]
And n[C]o one's listening
[Am]With Northern M[F]assachusetts
[C]On his knees to s[G]tay
He's begging
[F]"Please, oh baby [G]please, I can exp[Am]lain
It won't happen agaa[Am]aaaain[Gmaj]
It won't happen agai[F]n[Gmaj]
BRIDGE:
[Am] How long can this last?
[G#m#5] The final straw was the hospital
[F] At least she told herself that
[Gmaj]But she just can't find the strength to end it!
PRE-CHORUS:
[F]I just [Gmaj]left
[G11]In the mi[Gmaj]ddle o[Em]f the[F] night
[Gmaj]Back to C[Gmaj]alifornia
G11 (Just bottom 3 strings)
I'll never look back
FINAL CHORUS:
[Am]She'll fantas[F]ize about it
[Gmaj]Every single d[G]ay but she can't find it[F]
In her h[G]eart to run aw[Am]ay
And n[C]o one's listening
[Am]With Northern M[F]assachusetts
[C]On his knees to s[G]tay
He's begging
[F]"Please, oh baby [G]please, I can exp[Am]lain
C Am (SOLO)
It won't happen agaaain
[Am]She'll fantas[F]ize about it
[Gmaj]Every single [G]day but she can't [F]find it
In her h[G]eart to run aw[Am]ay
And n[C]o one's listening
[Am]With Northern M[F]assachusetts
[C]On his knees to s[G]tay
He's begging
[F]"Please, oh baby [G]please, I can ex[Am]plain[Am]
SOLO:
 
 eb |---------------------------------------------------------------------------|
 Bb |------------5-8----6-5-5-----6-5--------------------6---------5-4-5--------|
 Gb |---5----7---------------------------7------5-4-5-------4-------------------|
 Db |---------------------------------------------------------------------------| x2
 Ab |---------------------------------------------------------------------------|
 Eb |---------------------------------------------------------------------------|


Important: The song above is NOT stored on the Chordie server. The original song is hosted at www.guitaretab.com. Chordie works as a search engine and provides on-the-fly formatting. Chordie does not index songs against artists'/composers' will. To remove this song please click here.

Text color:
Chord color:
Chord grids: 
Font size:    
Page size: 

Am C Em F G G#m#5 G11 Gmaj
Rate #2 of 10 versions

Jango Player

Login - add to songbook

SHARE PAGE  



You need to log in to post comments