Guitar Tabs, Chords and Lyrics
Server problems seems to be fixed. Chordie has been experiencing problems with songs disappearing. These issues now seems to be fixed, but still verifying the fix. If you find anything strange, please email admin@chordie.com.


Departures  Silverstein

This is How the Wind Shifts
2013
Departures (Acoustic)
Tuning: Half Step Down
CHORDS:
Bm(1): A: G: D: Bm(2): Fno/5: GaddA:
 
 eb |-------| |-------| |-------| |--(2)--| |-------| |-------| |--------|
 Bb |-------| |---0---| |---3---| |---3---| |---3---| |-------| |---3----|
 Gb |-------| |---2---| |---0---| |---2---| |---4---| |-------| |---3----|
 Db |---4---| |---2---| |---0---| |---0---| |---4---| |---4---| |---0----|
 Ab |---5---| |---2---| |---x---| |-------| |---2---| |---1---| |---x----|
 Eb |---7---| |---x---| |---3---| |-------| |-------| |---x---| |---3----|

INTRO (periods mean to mute):
 
 eb |----------------------------------------------------------------------------------------------------|
 Bb |----------------------------------------------------------------------------------------------------|
 Gb |----------------------------------0-------------------------------------------------0---------------|
 Db |---7-------------------------7----------4-------------4------------------------7----------4-----7---|
 Ab |---5---(5)-(5)-(5)-(5)-(5)---------------------5------5---(5)-(5)-(5)-(5)-(5)-----------------------|
 Eb |---7----7---7---7---7---7------7-----7-----7------7---7----7---7---7---7---7-----7-----7-----7------|

. . . . . . . . . . .
 
 -------------------------------------------------------------------------------------------------------|
 -------------------------------------------------------------------------------------------------------|
 -------------------------------------0-----------------------------------------------0-----------------|
 ------4-------------------------7----------4----------4------------------------7-----------4-----7-----|
 ------5---(5)-(5)-(5)-(5)-(5)-------------------5-----5---(5)-(5)-(5)-(5)-(5)--------------------------|
 --7---7----7---7---7---7---7------7-----7----7-----7--7----7---7---7---7---7------7-----7-----7--------|

. . . . . . . . . . . .
VERSE
I'm dying [Bm(1)]here before your eye[A]s inside of [G]darken circles
[D]I'm af[Bm(2)]raid of [A]savage things I[G] fought to keep a[D]way
Bef[Bm(2)]ore I f[A]ound out just what I [G]found that I [D]knew you'd be[Bm(2)]come
A G Fno/5 A
Now you know the things I'm running from...
[D]You could help me hide
[G] In the places I once l[Bm(2)]ived and lost the one
Fno/5 A D
Now you know the things I'm running from...
[G]Now you know the things I'm running fro[D]m...
You're killing me[Bm(2)] kid, [A] but I k[D]now your intentions are good[G]
I read what you w[Bm(2)]rote out, asked me to s[A]low down, I s[G]hould
I think you're trying to m[Bm(2)]ake it seem[A] like it n[D]ever could've meant [G]enough
But what I'm hearing you s[Bm(2)]ay is that you're running a[A]way 'cause it meant too[G] much
So this isn't [Bm(2)]easy, [A] I know the [D]weather in Melbourne is[G] best
San Francisco got [Bm(2)]cold as I read your note[A] walking van next to O[G]ak
You said I [Em]guess I'll be home soon but things will be dif[Bm(2)]ferent I'm sure
So I [G]thought that you should know if things are gonna c[GaddA]hange when you come home
Maybe this time [Bm(2)]don't...

Important: The song above is NOT stored on the Chordie server. The original song is hosted at www.guitaretab.com. Chordie works as a search engine and provides on-the-fly formatting. Chordie does not index songs against artists'/composers' will. To remove this song please click here.

Text color:
Chord color:
Chord grids: 
Font size:    
Page size: 

A D Em G GaddA
Rate #1 of 6 versions

Jango Player

Login - add to songbook

SHARE PAGE  



You need to log in to post comments