Guitar Tabs, Chords and Lyrics
Server problems seems to be fixed. Chordie has been experiencing problems with songs disappearing. These issues now seems to be fixed, but still verifying the fix. If you find anything strange, please email admin@chordie.com.


Bodies and Words  Silverstein

Arrivals and Departures
2007
Submitted by: paramore_fans@yahoo.com
This is 100% correct so vote it as approve!!!
Key: F#
Tuning: Standard EADGBe
Chords used:
Ebm - x68876
B - x24442
C# - x46664
[F#]Bb [-]- [244322]x13331
C#/F - 143xxx
Intro:
Part 1:
 
 Ebm--B--C#-- x2 Bb

Guitar 2: Pick it fast!!!
 
 e|-6-------------6-----|
 B|-----7---6h7-------7-|
 G|---8---8-----8---8---|
 D|---------------------| repeat many times
 A|---------------------|
 E|---------------------|

Part 2: Ebm--B-C# x2 Bb
Guitar 2: at Bb
 
 e|-6-------------6-----|
 B|-----7---6h7-------7-|
 G|---8---8-----8---8---|
 D|---------------------|
 A|---------------------|
 E|---------------------|

Guitar 3: at Bb
 
 e|-9---7---6---9---7---|
 B|---7---7---7---7---7-|
 G|---------------------|
 D|---------------------|
 A|---------------------|
 E|---------------------|

Verse 1:
Growl:
[Ebm] This conversation always [B]ends with good[C#]bye
Sing:
You're s[Ebm]tanding here behind the door
you're [B]waiting with your [C#]rope[Bb]
Chorus:
[B] Maybe [C#]you just have to s[Ebm]leep
in someone el[C#]se's [B]bed
Maybe [C#]you just have to [Bb]keep
[F#]searching for something
[B]better than [C#]perfect
which [F#]you [C#/F]know [Ebm]will [C#]never e[B]xist
It's cut and [Bb]dried
Interlude:
[Ebm--B-C#] [Bb]  
Guitar 2: at Bb
 
 e|-6-------------6-----|
 B|-----7---6h7-------7-|
 G|---8---8-----8---8---|
 D|---------------------|
 A|---------------------|
 E|---------------------|

Guitar 3: at Bb
 
 e|-9---7---6---9---7---|
 B|---7---7---7---7---7-|
 G|---------------------|
 D|---------------------|
 A|---------------------|
 E|---------------------|

Verse 2:
Growl:
[Ebm] There's no defense like a [B]good offense
you [C#]know this
Sing:
The [Ebm]clock is running down on me
there's [B]no way I can [C#]win[Bb]
(Repeat Chorus)
(Repeat Intro part 1)
Bridge: beat switch to 3/4
[Bb]I've known this all a[Ebm]long[C#]
I [Ebm]loved you any[C#]ways
[Bb]des[Ebm]pite [C#]all [Ebm]your de[C#]ceit
[Bb]Think about [Ebm]if you had been [C#]faithful
[Ebm]how I would have [Bb]felt
[F#]Now [Ebm]all we [C#]have [Ebm]left are [C#]bod[Bb]ies [C#]and [Bb]words
[C#]I can't [Bb]be a [C#]boy for[Bb]ever!
(Repeat Chorus)
Outro:
[Bb--Ebm]  
Guitar 2: at Bb
 
 e|-6-------------6-----|
 B|-----7---6h7-------7-|
 G|---8---8-----8---8---|
 D|---------------------|
 A|---------------------|
 E|---------------------|

Guitar 3: at Bb
 
 e|-9---7---6---9---7---|
 B|---7---7---7---7---7-|
 G|---------------------|
 D|---------------------|
 A|---------------------|
 E|---------------------|


Important: The song above is NOT stored on the Chordie server. The original song is hosted at www.guitaretab.com. Chordie works as a search engine and provides on-the-fly formatting. Chordie does not index songs against artists'/composers' will. To remove this song please click here.

Text color:
Chord color:
Chord grids: 
Font size:    
Page size: 

B Bb C# C#/F Ebm F#
Rate #2 of 4 versions

Login - add to songbook

SHARE PAGE  



You need to log in to post comments