Guitar Tabs, Chords and Lyrics
Server problems seems to be fixed. Chordie has been experiencing problems with songs disappearing. These issues now seems to be fixed, but still verifying the fix. If you find anything strange, please email admin@chordie.com.


My Disaster  Silverstein

Arrivals And Departures
2007
Submitted by: paramore_fans@yahoo.com
Key: F#
Tuning: Standard EADGBe
Chords used:
B - x24442
Bbm - x13321
Ebm - x68876
C# - x46664
[F#] [-] [244322]  
Intro: B-Bbm-Ebm-C# x2
Growl:
you've [B]crossed the [Bbm]line
you're [Ebm]running in [C#]circles now
you've [B]lost all [Bbm]self [Ebm]control
you [B]medi[Bbm]cate so [Ebm]you can [C#]fall asleep
your [B]mind just [Bbm]won't shut [Ebm]down
Verse 1:
[Ebm] i wonder where you are
i wonder if you've [B]found
your other self or are
you s[Ebm]till somebody else?
[Ebm] there's so much
bottled up inside
and it's been shaken
up it's [B]going to explode
[Ebm]you can't stop it
you just can't stop it
Chorus:
[B] you say [Bbm]you're [Ebm]done
[B] you swear [Bbm]you've [Ebm]gave it up
[C#] running in [B]circles [Bbm]you
don't [Ebm]even care that
you're going nowhere
[B] you hate [Bbm]your[Ebm]self
Verse 2:
[Ebm] i still wonder where you are
i wonder if the [B]thorn's still
in your side will
you [Ebm]pull it out in time?
[Ebm] and now it starts to overflow
and spill its guts and [B]ruin
someone's soul [Ebm]you can't stop it
Growl:
you just can't stop it
(Repeat Chorus)
(Repat Intro Growl)
let's go
 
 Interlude: B--C#-Ebm--C#-B--Bbm-Ebm--

Guitar 2: Use the tremolo effect pedal, b means bend
[B] [C#] [Ebm] [C#]  
 
 e|----9-----|-------|----9-----|-------------
 B|-------11-|-9-----|-------11-|-9h11p9------
 G|-8--------|----11-|-8--------|--------11-8-
 D|----------|-------|----------|-------------
 A|----------|-------|----------|-------------
 E|----------|-------|----------|-------------

[B] [Bbm] [Ebm]  
 
 e|----9-----|-------|---------
 B|-------11-|-9-----|-9b11----
 G|-8--------|----11-|---------
 D|----------|-------|---------
 A|----------|-------|---------
 E|----------|-------|---------

Bridge:
[B] you are my disaster
i can't stop [C#]chasing after
[Ebm] you are my disaster
i can't stop [C#]chasing after
[B] you are my disaster
i can't stop [Bbm]chasing after
[Ebm] you are my disaster
i can't stop chasing after
Guitar 2: In bridge, still use the tremolo effect pedal
[B] [C#] [Ebm] [C#]  
 
 e|-14--13--11-|-13-|-14--13--16-|-14--13-
 B|------------|----|------------|--------
 G|------------|----|------------|--------
 D|------------|----|------------|--------
 A|------------|----|------------|--------
 E|------------|----|------------|--------

[B] [Bbm] [Ebm]  
 
 e|-14--13--11-|-11-|-11---
 B|------------|----|------
 G|------------|----|------
 D|------------|----|------
 A|------------|----|------
 E|------------|----|------

Growl:
you've [B]crossed the [Bbm]line
you're [Ebm]running in [C#]circles now
you've [B]lost all [Bbm]self [Ebm]control
(Repeat Chorus)
Outro:
Growl:
[Ebm] you're my disaster i
can't stop chasing you
[B] you're my disaster[Bbm] i
can't stop [F#]chasing [Ebm]you

Important: The song above is NOT stored on the Chordie server. The original song is hosted at www.guitaretab.com. Chordie works as a search engine and provides on-the-fly formatting. Chordie does not index songs against artists'/composers' will. To remove this song please click here.

Text color:
Chord color:
Chord grids: 
Font size:    
Page size: 

B Bbm C# Ebm F#
Rate #2 of 5 versions

Jango Player

Login - add to songbook

SHARE PAGE  



You need to log in to post comments