Guitar Tabs, Chords and Lyrics
Server problems seems to be fixed. Chordie has been experiencing problems with songs disappearing. These issues now seems to be fixed, but still verifying the fix. If you find anything strange, please email admin@chordie.com.


Love With Caution  Silverstein

Arrivals And Departures
2007
Submitted by: paramore_fans@yahoo.com
Key: C#
Tuning: Standard EADGBe
Chords used:
C# - x46664
[G#]Bbm[-] - [466544]x13321
[F#]Ebm[-] - [244322]x68876
[Fm] [-] [133111]  
Intro: F#-G#-Bbm-G# x3, F#-G#-F#
Verse 1:
[C#] The river's running
fast right [F#]now
It's the time of year
the [C#]water cleanses itself
[F#]Running wild but
always in con[C#]trol
And now's the [F#]time
to sever the [C#]ties
To habits that [F#]weaken
disguised by tradi[Bbm]tion[G#]
Refrain:
[F#] Drain away this fear[Bbm] [G#]
[F#] Until it disappears[Bbm] [G#]
[C#]Yeah!
Chorus:
[F#] I'm not [G#]ready to [Bbm]swim
I'm not [G#]going to [F#]sink
[G#]I just [Bbm]want to
[G#]float through the [F#]sea
Are you [G#]pulling me [Bbm]down?
Are you [G#]holding me [F#]up?
Or [G#]are you s[F#]lowly drowning me?
Verse 2:
Sing:
[C#] There's something
to be said for [F#]luck it's
better than being [C#]good
When half of being [F#]good
is being lucky any[C#]ways
We're spreading out
Growl:
We're spreading [F#]out
Sing:
we're harder to hit
Growl::
we're harder to [C#]hit
Sing:
Become a moving target
[F#]Drop your burden
And abandon it
(Repeat Refrain and Chorus)
you [G#]slowly drowning me
 
 Interlude: F#--C#--Fm--Bbm-G# x2, Palm muted

Guitar 2: will enter at 2nd time, continue until bridge
[F#] [C#] [Fm] [Bbm] [G#]  
 
 e|-----------------|-----------------|-----------------|-1---1---|---------
 B|-2-1-2-1-2-1-2-1-|-2---2---2---2---|-1-2-1-2-1-2-1-2-|---2---2-|-4-2-4-2-
 G|-----------------|---1---1---1---1-|-----------------|---------|---------
 D|-----------------|-----------------|-----------------|---------|---------
 A|-----------------|-----------------|-----------------|---------|---------
 E|-----------------|-----------------|-----------------|---------|---------

Bridge:
[F#] I re[C#]member a [Fm]day when I could
[Bbm]walk right [G#]down the s[F#]treet
And [C#]feel so confi[Fm]dent
and know [Bbm]every[G#]thing's o[F#]kay
Take my [G#]hand don't let [Bbm]go but
please re[G#]member hearts can [F#]grow
We still [G#]have to take it s[Bbm]low
G# F#(hold)
I love with caution and trust alone
Riff: After Bridge, Palm muted
 
 e|---------------------1-1---------
 B|-----2-2-1-1-------------4-4-2-1-
 G|-3-3---------3-3-----------------
 D|-----------------4-4-------------
 A|---------------------------------
 E|---------------------------------

(Repeat Chorus twice)
Outro:
G# Bbm-G#-F#(hold)
you slowly drowning me

Important: The song above is NOT stored on the Chordie server. The original song is hosted at www.guitaretab.com. Chordie works as a search engine and provides on-the-fly formatting. Chordie does not index songs against artists'/composers' will. To remove this song please click here.

Text color:
Chord color:
Chord grids: 
Font size:    
Page size: 

Bbm C# F# Fm G#
Rate #1 of 5 versions

Login - add to songbook

SHARE PAGE  




You need to log in to post comments