Guitar Tabs, Chords and Lyrics
Major upgrade!! After one year development the new version of Chordie is now online! Please give feedback.


Que lloro  Sin Bandera

INTRO:
[D] [A] [F#m] [E]  
 
 e-5-4--------5-7-9-9~--17-16-------------------|
 B-----5----------------------17----------------|
 G-------4-2~--------------------16-14~--14-13~-|
 D----------------------------------------------|
 A----------------------------------------------|
 E----------------------------------------------|

Qu[D]édate un momento así..
no mires hacia m[A]i, que no podré aguantar,
si clavas tu mirada,[F#m] que me hiela el cuerpo,
me ha pasado [E]antes.. que no puedo hablar.
T[D]al vez pienses que estoy loco,
y es verdad un poco[A] tengo que aceptar,
pero si no te explico[F#m] lo que siento dentro,
no vas a entender[E] cuando me veas llorar.
N[D]unca me sentí tan solo,
como cuando ayer..[A] de pronto lo entendí mientras callaba,
l[F#m]a vida me dijo a gritos..
que nunca te tuve[E] y nunca te perdí,
y me explicaba.. que [D]el amor es una cosa,
que se da de pronto[A] en forma natural, lleno de fuego,
si[F#m] lo fuerza se marchita, y sin tener principio[E] llega a su final.
Ahora tal v[D]ez lo puedas entender,
que si me t[E]ocas se quema mi piel,
Ahora tal v[F#m]ez lo puedas entender,
y no te vu[E]elvas si no quieres ver..
Que ll[D]oro por t[E]i,
que ll[Bm]oro sin t[E]i,
que y[D]a lo entend[E]í...
que no eras para mi,
y ll[D]oro.
[D]Nunca me sentí tan solo,
como cuando ayer..[A]. de pronto lo entendí mientras callaba,
l[F#m]a vida me dijo a gritos...
que nunca te tuve[E] y nunca te perdí,
y me explicaba.. que [D]el amor es una cosa,
que se da de pronto[A] en forma natural, lleno de fuego,
si[F#m] lo fuerza se marchita, y sin tener principio[E] llega a su final.
Ahora tal v[D]ez lo puedas entender,
que si me t[E]ocas se quema mi piel,
Ahora tal v[F#m]ez lo puedas entender,
y no te vu[E]elvas si no quieres ver..
Que ll[D]oro por t[E]i,
que ll[Bm]oro sin t[E]i,
que y[D]a lo entend[E]í...
que no eras para mi,
y ll[D]oro.
SOLO:
[D] [A] [F#m]  
 
 e-----------------------------------------------------|
 B-----------------------------------------------------|
 G------2---2---2---2------4---4---4/6-6-4-4-2-2/4-2-2-|
 D--444---4---4---4---4-4/6--6---6---------------------|
 A-----------------------------------------------------|
 E-----------------------------------------------------|

[E] [D] [A] [E]  
 
 e----------------------------------------------------|
 B----------------------------------------------------|
 G-2-2-2-2/1-1/4-4-4-4-4/2-2-2-1-1-2-2-2-2/1-1-1-2/4--|
 D----------------------------------------------------|
 A----------------------------------------------------|
 E----------------------------------------------------|

[D] [E]  
 
 e-----------------------5-5/7-9-9-9-9-9/7-5-5~~~-----|
 B-----------------5-5/7------------------------------|
 G-4-4/2-4/6-6-6-6------------------------------------|
 D----------------------------------------------------|
 A----------------------------------------------------|
 E----------------------------------------------------|

Que ll[D]oro por t[E]i,
que ll[Bm]oro sin t[E]i,
que y[D]a lo entend[E]í...
que no eras para mi,
y ll[D]oro.
OUTRO:
[A]  
 
 E-0-0---0-----------|

B-2-2/3-2--|
 
 G-2-2---2-----------|
 D-2-2---2-----------|
 A-0-0---0-----------|
 E-X-----X-----------|


Important: The song above is NOT stored on the Chordie server. The original song is hosted at www.guitaretab.com. Chordie works as a search engine and provides on-the-fly formatting. Chordie does not index songs against artists'/composers' will. To remove this song please click here.

Text color:
Chord color:
Chord grids: 
Font size:    
Page size: 

A Bm D E F#m
Rate #1 of 4 versions

Jango Player

Login - add to songbook

SHARE PAGE  




You need to log in to post comments