Guitar Tabs, Chords and Lyrics
Major upgrade!! After one year development the new version of Chordie is now online! Please give feedback.


Youth Gone Wild   Skid Row

 
 |-----3----| 

 


 Q Q Q Q H H Q


 

 
 ------------------------|--15--------15~---------------|
 ------------------------|---------------------------15b----|
 --L----L----L-----------|----------------------------------|
 --L----L----L-----------|----------------------------------|
 ------------------------|----------------------------------|
 ------------3br----L----|----------------------------------|

 


 wild We stand


 


 S S S S S S S S S Q S E


 

 
 --13--12-------------------------------------------------|
 ---------15-----13---12----------------------------------|
 ------------------------15-----14--12h-14--12~---------|
 ---------------------------------------------------------|
 ---------------------------------------------------------|
 ---------------------------------------------------------|

 


 and we won\'t fall We\'re the one and one


 


 S S S S S S S S S S S S Q


 

 
 --15--17--13-15--12---------13-10--12---8-10-7---8---5~----|
 -----------------------------------------------------------|
 -----------------------------------------------------------|
 -----------------------------------------------------------|
 -----------------------------------------------------------|
 -----------------------------------------------------------|

 


 for all The writing\'s on the wall Weare the youth


 


 


 S S S S S S S S Q Q


 

 
 --/12--13---15-13-15--17--15----17---22b----22~----|
 ---------------------------------------------------|
 ---------------------------------------------------|
 ---------------------------------------------------|
 ---------------------------------------------------|
 ---------------------------------------------------|

 


 gonewild We are the youth gone wild


 


 


 Scott Hill Solo


 


 SH PM PM PM PM PM


 [3]H S S S Q [3]Q S S S S S [3]E E S Q E [3]E [3]T


 

 
 -------------------------------------|---------------------------------------|
 -------------------------------------|---------------------------------8b--L-|
 --5b--------7--5-----5~----L-------|--5----5-7-7~--7br--5-7~----5--------|
 --------------------7-------------7--|----7----------------------------------|
 -------------------------------------|---------------------------------------|
 -------------------------------------|---------------------------------------|

 


 


 \5


 S S S S S S S S E S S E E E E E E E E E S S


 

 
 ---------------------------------|---------------------------------------|
 --L-8-6-5------------------------|---------------------------------------|
 ----------7-5-4---7br--5---5--3--|--5br--(5)br--(5)br--L--L--L--L--L-5-|
 ----------------7--------7-------|---------------------------------------|
 ---------------------------------|---------------------------------------|
 ---------------------------------|---------------------------------------|

 


 


 Q H Q


 

 
 ---------------------|-------|-------|
 ---------------------|-------|-------|
 --L----L-------------|-------|-------|
 ---------------------|-------|-------|
 ---------------------|-------|-------|
 ---------------------|-------|-------|

 


 


 Duration Legend


 

 
 ---------------

 


 W - whole


 H - half


 Q - quarter


 E - 8th


 S - 16th


 T - 32nd


 X - 64th


 . - note dotted


 |-n-| - n-tuplets


 


 Tablature Legend


 

 
 ----------------


Important: The song above is NOT stored on the Chordie server. The original song is hosted at www.guitaretab.com. Chordie works as a search engine and provides on-the-fly formatting. Chordie does not index songs against artists'/composers' will. To remove this song please click here.

This song is displayed as text-only. Transposing and tuning is only available for chordpro-songs.
Rate #1 of 4 versions

Login - add to songbook

SHARE PAGE  




You need to log in to post comments