Guitar Tabs, Chords and Lyrics
Major upgrade!! After one year development the new version of Chordie is now online! Please give feedback.


I Hate You  Slayer

As recorded by Slayer
(From the 1996 Album UNDISPUTED ATTITUDE)
Transcribed by James Williams (Inverted)
Words and Music by Eric "Jolie" Mastrokolas, Brett Dodwell and Nicki Sicki
[F#5]2 4 x x x x
[G5]3 5 x x x x
[A5]5 7 x x x x
Gtr I (Eb Ab Db Gb Bb Eb) - 'Hanneman'
Gtr II (Eb Ab Db Gb Bb Eb) - 'King'
Intro
Moderate Punk Rock Q=156
[F#5] [G5] 
[4/4] Gtr I
 
 PM--------| PM--------|

H. Q Q E E E E E E Q E E E E E E
 
 |--------------||-----------------|----------------|
 |--------------||o----------------|----------------|
 |--------------||-----------------|----------------|
 |--------------||-----------------|----------------|
 |--------------||o-4--4-4-4-4-4-4-|-5--5-5-5-5-5-5-|
 |---------12\--||--2--2-2-2-2-2-2-|-3--3-3-3-3-3-3-|

|
| Gtr II
 
 | PM--------| PM--------|

| W Q E E E E E E Q E E E E E E
 
 |--------------||-----------------|----------------|
 |--------------||o----------------|----------------|
 |--------------||-----------------|----------------|
 |--------------||-----------------|----------------|
 |--------------||o-4--4-4-4-4-4-4-|-5--5-5-5-5-5-5-|
 |--------------||--2--2-2-2-2-2-2-|-3--3-3-3-3-3-3-|

1. 2.
[A5] [G5] [F#5] [F#5]  
 
 PM| PM| PM-----------| ~~~~~~

Q E E Q E E Q E E E E E E Q. E +H
 
 |---------------|------------------------||--------------------|
 |---------------|-----------------------o||--------------------|
 |---------------|------------------------||--------2-(2)-------|
 |---------------|------------------------||--------2-(2)-------|
 |-7--7-7-5--5-5-|-4---4-4-4----4-4--4---o||--4-----------------|
 |-5--5-5-3--3-3-|-2---2-2-2----2-2--2----||--2-----------------|

|
 
 | PM| PM| PM----------|

| Q E E Q E E Q. E E E E +E Q E E E E E E
 
 |---------------|------------------------||--------------------|
 |---------------|-----------------------o||--------------------|
 |---------------|-------4-4b6==4-4-(4)\--||--------------------|
 |---------------|------------------------||--------------------|
 |-7--7-7-5--5-5-|-4---------------------o||--4---4-4--4--4-4-4-|
 |-5--5-5-3--3-3-|-2----------------------||--2---2-2--2--2-2-2-|

Verse I
[F#5]Gtrs I, II[G5] [A5] [G5] [F#5]
 
 PM--------| PM--------| PM| PM| PM--------|

Q E E E E E E Q E E E E E E Q E E Q E E Q E E E E E E
 
 ||-----------------|----------------|---------------|-----------------||
 ||o----------------|----------------|---------------|----------------o||
 ||-----------------|----------------|---------------|-----------------||
 ||-----------------|----------------|---------------|-----------------||
 ||o-4--4-4-4-4-4-4-|-5--5-5-5-5-5-5-|-7--7-7-5--5-5-|-4--4-4-4-4-4-4-o||
 ||--2--2-2-2-2-2-2-|-3--3-3-3-3-3-3-|-5--5-5-3--3-3-|-2--2-2-2-2-2-2--||

Chorus
[B5]Gtr I[E5] [D5] [A5]
Q E E E E E E Q E E E E E E Q E E E E E E Q E E E E E E
 
 |----------------|----------------|-------------------|----------------------|
 |----------------|----------------|-------------------|----------------------|
 |----------------|----------------|-------------------|----------------------|
 |-4--4-4-4-4-4-4S|=9--9-9-9-9-9-9-|-7--7-7-7-7-7-7----|--2----2-2-2-2-2---2--|
 |-2--2-2-2-2-2-2S|=7--7-7-7-7-7-7-|-5--5-5-5-5-5-5----|--0----0-0-0-0-0---0--|
 |----------------|----------------|-------------------|----------------------|

|
| Gtr II
| Q E E E E E E Q E E E E E E Q E E E E E E +E E Q E E Q
 
 |----------------|----------------|-------------------|----------------------|
 |----------------|----------------|--------------5----|-(5)-5-5---5-5-5\-----|
 |----------------|----------------|--------------7b9==|=(7)-7-7---7-7-7r\----|
 |-4--4-4-4-4-4-4S|=9--9-9-9-9-9-9-|-7--7-7-7-7-7------|----------------------|
 |-2--2-2-2-2-2-2S|=7--7-7-7-7-7-7-|-5--5-5-5-5-5------|----------------------|
 |----------------|----------------|-------------------|----------------------|

[B5]Q E E E E E E [E5]Q E E E E E E [D5]Q E E E E E E
 
 |----------------|----------------|-------------------|
 |----------------|----------------|-------------------|
 |----------------|----------------|-------------------|
 |-4--4-4-4-4-4-4S|=9--9-9-9-9-9-9-|-7--7-7-7-7-7-7----|
 |-2--2-2-2-2-2-2S|=7--7-7-7-7-7-7-|-5--5-5-5-5-5-5----|
 |----------------|----------------|-------------------|

|
| Q E E E E E E Q E E E E E E Q E E E E E E
 
 |----------------|----------------|-------------------|
 |----------------|----------------|--------------5----|
 |----------------|----------------|--------------7b9==|
 |-4--4-4-4-4-4-4S|=9--9-9-9-9-9-9-|-7--7-7-7-7-7------|
 |-2--2-2-2-2-2-2S|=7--7-7-7-7-7-7-|-5--5-5-5-5-5------|
 |----------------|----------------|-------------------|

[A5] Q E E E E E E
 
 |------------------------------------|
 |------------------------------------|
 |------------------------------------|
 |--2----2----2-2--2-2-------2--------|
 |--0----0----0-0--0-0-------0--------|
 |------------------------------------|

|
| +E E Q Q T T T T T T T T
 
 |--------------5/--------------------|
 |-(5)-5-5----------------------------|

|-(7)-7-7b9==========================|
 
 |------------------------------------|
 |------------------------------------|
 |-------------------xSxSxSxSxSxSxSx\-|

[F#5] [G5] [A5] [G5]  
 
 PM--------| PM--------| PM| PM|

Q E E E E E E Q E E E E E E Q E E Q E E
 
 ||-----------------|----------------|---------------|
 ||o----------------|----------------|---------------|
 ||-----------------|----------------|---------------|
 ||-----------------|----------------|---------------|
 ||o-4--4-4-4-4-4-4-|-5--5-5-5-5-5-5-|-7--7-7-5--5-5-|
 ||--2--2-2-2-2-2-2-|-3--3-3-3-3-3-3-|-5--5-5-3--3-3-|

|
 
 | PM--------| PM--------| PM| PM|

| Q E E E E E E Q E E E E E E Q E E Q E E
 
 ||-----------------|----------------|---------------|
 ||o----------------|----------------|---------------|
 ||-----------------|----------------|---------------|
 ||-----------------|----------------|---------------|
 ||o-4--4-4-4-4-4-4-|-5--5-5-5-5-5-5-|-7--7-7-5--5-5-|
 ||--2--2-2-2-2-2-2-|-3--3-3-3-3-3-3-|-5--5-5-3--3-3-|

1. 2.
[F#5] [F#5]  
 
 PM--------------| ~~~~~~

Q E E E E E E Q. E +H
 
 |------------------------||--------------------|
 |-----------------------o||--------------------|
 |------------------------||-------2-(2)--------|
 |------------------------||-------2-(2)--------|
 |-4---4-4-----4--4--4-4-o||-4------------------|
 |-2---2-2-----2--2--2-2--||-2------------------|

|
 
 | PM----------|

| Q. E +Q Q Q E E E E E E
 
 |------------------------||--------------------|
 |-----------------------o||--------------------|
 |-------4b6==(4)s==18----||--------------------|
 |------------------------||--------------------|
 |-4---------------------o||-4---4-4--4--4-4-4--|
 |-2----------------------||-2---2-2--2--2-2-2--|

Verse II
[F#5]Gtrs I, II[G5] [A5] [G5] [F#5]
 
 PM--------| PM--------| PM| PM| PM--------|

Q E E E E E E Q E E E E E E Q E E Q E E Q E E E E E E
 
 ||-----------------|----------------|---------------|-----------------||
 ||o----------------|----------------|---------------|----------------o||
 ||-----------------|----------------|---------------|-----------------||
 ||-----------------|----------------|---------------|-----------------||
 ||o-4--4-4-4-4-4-4-|-5--5-5-5-5-5-5-|-7--7-7-5--5-5-|-4--4-4-4-4-4-4-o||
 ||--2--2-2-2-2-2-2-|-3--3-3-3-3-3-3-|-5--5-5-3--3-3-|-2--2-2-2-2-2-2--||

Chorus
[B5]Gtr I[E5] [D5] [A5]
Q E E E E E E Q E E E E E E Q E E E E E E Q E E E E E E
 
 |----------------|----------------|-------------------|----------------------|
 |----------------|----------------|-------------------|----------------------|
 |----------------|----------------|-------------------|----------------------|
 |-4--4-4-4-4-4-4S|=9--9-9-9-9-9-9-|-7--7-7-7-7-7-7----|--2----2-2-2-2-2---2--|
 |-2--2-2-2-2-2-2S|=7--7-7-7-7-7-7-|-5--5-5-5-5-5-5----|--0----0-0-0-0-0---0--|
 |----------------|----------------|-------------------|----------------------|

|
| Gtr II
| Q E E E E E E Q E E E E E E Q E E E E E E +E E Q E E Q
 
 |----------------|----------------|-------------------|----------------------|
 |----------------|----------------|--------------5----|-(5)-5-5---5-5-5\-----|
 |----------------|----------------|--------------7b9==|=(7)-7-7---7-7-7r\----|
 |-4--4-4-4-4-4-4S|=9--9-9-9-9-9-9-|-7--7-7-7-7-7------|----------------------|
 |-2--2-2-2-2-2-2S|=7--7-7-7-7-7-7-|-5--5-5-5-5-5------|----------------------|
 |----------------|----------------|-------------------|----------------------|

[B5]Q E E E E E E [E5]Q E E E E E E
 
 |----------------|----------------|
 |----------------|----------------|
 |----------------|----------------|
 |-4--4-4-4-4-4-4S|=9--9-9-9-9-9-9-|
 |-2--2-2-2-2-2-2S|=7--7-7-7-7-7-7-|
 |----------------|----------------|

|
| Q E E E E E E Q E E E E E E
 
 |----------------|----------------|
 |----------------|----------------|
 |----------------|----------------|
 |-4--4-4-4-4-4-4S|=9--9-9-9-9-9-9-|
 |-2--2-2-2-2-2-2S|=7--7-7-7-7-7-7-|
 |----------------|----------------|

Solo - King
[D5]Q E E E E E E [A5] Q E E E E E E
 
 |------------------------|----------------------------|
 |------------------------|----------------------------|
 |------------------------|----------------------------|
 |-7--7-7-7---7--7--7-----|---2------2-2--2--2--2---2--|
 |-5--5-5-5---5--5--5-----|---0------0-0--0--0--0---0--|
 |------------------------|----------------------------|

|
| Q E E E E E E +E E Q E E E E
 
 |-----------------12-----|-(12)-12-12---12-12---------|
 |----------/12-15-15b17==|=(15)-15-15---15-15-15rs20--|
 |------------------------|----------------------------|
 |-7--7-7-7---------------|----------------------------|
 |-5--5-5-5---------------|----------------------------|
 |------------------------|----------------------------|

[F#5]Gtr I[G5]
Q E E E E E E Q E E E E E E
| | | | | | | | | | | | | |
[/] [/] [/] [/] [/] [/] [/] [/] [/] [/] [/] [/] [/] [/] 
Gtr II
Q E E Q Q Q E E Q +E S S
 
 |-17------17-17-17---17----|-19------19-19-19--------------19-|
 |-20b22===20-20-20---20r---|-22b24===22-22-22---(22)r\-/22----|
 |--------------------------|----------------------------------|
 |--------------------------|----------------------------------|
 |--------------------------|----------------------------------|
 |--------------------------|----------------------------------|

[A5] Q E E [G5] Q E E [F#5] Q E E E E E E
| | | | | | | | | | | | |
[/] [/] [/] [/] [/] [/] [/] [/] [/] [/] [/] [/] [/] 
Q +E S S Q +E S S Q E E +Q. +E
 
 |-22b24===(22)\-----17-20b22===(20)\-----14-|-17b19--17b19-17b19==(17)r====(17)-|
 |---------------/20------------------/17----|-----------------------------------|
 |-------------------------------------------|-----------------------------------|
 |-------------------------------------------|-----------------------------------|
 |-------------------------------------------|-----------------------------------|
 |-------------------------------------------|-----------------------------------|

[F#5] Q E E E E E E
| | | | | | |
[/] [/] [/] [/] [/] [/] [/] 
T T T T T T T T T T T
 
 |--------7--------| |-----6-----| |----5----|

S S S S S S S T T T T T T T T S S S S S S S S S S S
 
 |-16p13-16p13-15p10-15p13-14p9h11h13p11p8-12p9-12p6-12p8-9p5-9p5---9p6-|
 |----------------------------------------------------------------------|
 |----------------------------------------------------------------------|
 |----------------------------------------------------------------------|
 |----------------------------------------------------------------------|
 |----------------------------------------------------------------------|

[G5]Q E E E E E E
| | | | | | |
[/] [/] [/] [/] [/] [/] [/] 
T T T T
 
 |----5----| |----6----| |----5----|

S S T T T T S S S S S S S S S S S S S S S S
|-7p4-7p4-6p2h5-9p3h==4p1h3h4p3h4p3p1h3p1p0h==1p0-|
 
 |-------------------------------------------------|
 |-------------------------------------------------|
 |-------------------------------------------------|
 |-------------------------------------------------|
 |-------------------------------------------------|

[A5] Q E E [G5] Q E E [F#5] Q E E E E E E
| | | | | | | | | | | | |
[/] [/] [/] [/] [/] [/] [/] [/] [/] [/] [/] [/] [/] 
\0.5
E E Q E E E E E E E E +Q +Q
 
 |------------------------/15-|-19-----22-(22)---(22)-----|
 |-/4----/5-------/15-/20-----|------xS21-(21)---(21)-----|
 |----/2------/19-------------|---------------------------|
 |----------------------------|---------------------------|
 |----------------------------|---------------------------|
 |----------------------------|---------------------------|

[F#5] Q E E E E E E [G5] Q E E E E E E
| | | | | | | | | | | | | |
[/] [/] [/] [/] [/] [/] [/] [/] [/] [/] [/] [/] [/] [/] 
\0.5________________|
~~~~~~~~~~~~~~
E E H +E. S Q +Q +Q. +E
 
 |-------------------------------|--------------------------------|
 |-------------------------------|--------------------------------|
 |-------------------------------|---()-----()-----()-|
 |----------------()----|--------------------------------|
 |----------------------------|--------------------------------|
 |----------------------------|--------------------------------|

[A5]Q E E [G5]Q E E [F#5]Q E E E E E E
| | | | | | | | | | | | |
[/] [/] [/] [/] [/] [/] [/] [/] [/] [/] [/] [/] [/] 
~~~
Q E E E E E S S S E. Q +H
 
 |-5--5-5-5-5-5-5p3-|-5p3--2---(2)--------|
 |-5--5-5-5-5-5-5p3-|-5p3--2---(2)--------|
 |------------------|---------------------|
 |------------------|---------------------|
 |------------------|---------------------|
 |------------------|---------------------|

[F#5]Q E E E E E E [G5] Q E E E E E E
| | | | | | | | | | | | | |
[/] [/] [/] [/] [/] [/] [/] [/] [/] [/] [/] [/] [/] [/] 
\2.5__________________/ |
~~~~~~~~~~
W S +E. +E +E +H
 
 |--------------------|-----------------------------------|
 |--------------------|-----------------------------------|
 |--------------------|--()-()-()-()-------|
 |--------------------|-----------------------------------|
 |-0------------------|-----------------------------------|
 |--------------------|-----------------------------------|

[A5]Q E E [G5]Q E E [F#5]Q E E E E E E
| | | | | | | | | | | | |
[/] [/] [/] [/] [/] [/] [/] [/] [/] [/] [/] [/] [/] 
Q E E E E E S S S E. H Q
 
 |-5--5-5-5-5-5-5p3-|-5p3--2-------------|
 |-5--5-5-5-5-5-5p3-|-5p3--2-------10\---|
 |------------------|--------------------|
 |------------------|--------------------|
 |------------------|--------------------|
 |------------------|--------------------|

Verse Verse III
[F#5]Gtr I[G5] [A5] [G5] [F#5]
 
 PM--------| PM--------| PM| PM| PM-----------|

Q E E E E E E Q E E E E E E Q E E Q E E Q E E E E E E
 
 |----------------|----------------|---------------|------------------------|
 |----------------|----------------|---------------|------------------------|
 |----------------|----------------|---------------|------------------------|
 |----------------|----------------|---------------|------------------------|
 |-4--4-4-4-4-4-4-|-5--5-5-5-5-5-5-|-7--7-7-5--5-5-|-4---4-4-4----4-4--4----|
 |-2--2-2-2-2-2-2-|-3--3-3-3-3-3-3-|-5--5-5-3--3-3-|-2---2-2-2----2-2--2----|

|
| Gtr II
 
 | PM--------| PM--------| PM| PM|

| Q E E E E E E Q E E E E E E Q E E Q E E Q. E E E E +E
 
 |----------------|----------------|---------------|------------------------|
 |----------------|----------------|---------------|------------------------|
 |----------------|----------------|---------------|-------4-4b6==4-4-(4)\--|
 |----------------|----------------|---------------|------------------------|
 |-4--4-4-4-4-4-4-|-5--5-5-5-5-5-5-|-7--7-7-5--5-5-|-4----------------------|
 |-2--2-2-2-2-2-2-|-3--3-3-3-3-3-3-|-5--5-5-3--3-3-|-2----------------------|

[F#5]Gtrs I, II[G5] [A5] [G5] [F#5]
 
 PM--------| PM--------| PM| PM| PM--------|

Q E E E E E E Q E E E E E E Q E E Q E E Q E E E E E E
 
 |----------------|----------------|---------------|-----------------|
 |----------------|----------------|---------------|-----------------|
 |----------------|----------------|---------------|-----------------|
 |----------------|----------------|---------------|-----------------|
 |-4--4-4-4-4-4-4-|-5--5-5-5-5-5-5-|-7--7-7-5--5-5-|-4--4-4-4-4-4-4--|
 |-2--2-2-2-2-2-2-|-3--3-3-3-3-3-3-|-5--5-5-3--3-3-|-2--2-2-2-2-2-2--|

Chorus
[B5]Gtr I[E5] [D5] [A5]
Q E E E E E E Q E E E E E E Q E E E E E E Q E E E E E E
 
 |----------------|----------------|-------------------|----------------------|
 |----------------|----------------|-------------------|----------------------|
 |----------------|----------------|-------------------|----------------------|
 |-4--4-4-4-4-4-4S|=9--9-9-9-9-9-9-|-7--7-7-7-7-7-7----|--2----2-2-2-2-2---2--|
 |-2--2-2-2-2-2-2S|=7--7-7-7-7-7-7-|-5--5-5-5-5-5-5----|--0----0-0-0-0-0---0--|
 |----------------|----------------|-------------------|----------------------|

|
| Gtr II
| Q E E E E E E Q E E E E E E Q E E E E E E +E E Q E E Q
 
 |----------------|----------------|-------------------|----------------------|
 |----------------|----------------|--------------5----|-(5)-5-5---5-5-5\-----|
 |----------------|----------------|--------------7b9==|=(7)-7-7---7-7-7r\----|
 |-4--4-4-4-4-4-4S|=9--9-9-9-9-9-9-|-7--7-7-7-7-7------|----------------------|
 |-2--2-2-2-2-2-2S|=7--7-7-7-7-7-7-|-5--5-5-5-5-5------|----------------------|
 |----------------|----------------|-------------------|----------------------|

[B5]Q E E E E E E [E5]Q E E E E E E
 
 |----------------|----------------|
 |----------------|----------------|
 |----------------|----------------|
 |-4--4-4-4-4-4-4S|=9--9-9-9-9-9-9-|
 |-2--2-2-2-2-2-2S|=7--7-7-7-7-7-7-|
 |----------------|----------------|

|
| Q E E E E E E Q E E E E E E
 
 |----------------|----------------|
 |----------------|----------------|
 |----------------|----------------|
 |-4--4-4-4-4-4-4S|=9--9-9-9-9-9-9-|
 |-2--2-2-2-2-2-2S|=7--7-7-7-7-7-7-|
 |----------------|----------------|

[D5]Q E E E E E E [A5] +E E Q Q Q
 
 |-----------------12-----|-(12)-12-12--------------|
 |----------/12-15-15b17==|=(15)-15-15r-------------|
 |------------------------|-------------------------|
 |-7--7-7-7---------------|-------------------------|
 |-5--5-5-5---------------|-------------------------|
 |------------------------|---------------xs==x\----|

|
| Q E E E E E E Q E E E E E E
 
 |------------------------|-------------------------|
 |------------------------|-------------------------|
 |------------------------|-------------------------|
 |-7--7-7-7---7--7--7-----|---2------2--2-2-2-2--2--|
 |-5--5-5-5---5--5--5-----|---0------0--0-0-0-0--0--|
 |------------------------|-------------------------|

[F#5]Gtrs I, II
W +W +W +Q Q H
 
 |----------|------------|------------|---------------*|
 |----------|------------|------------|---------------*|
 |----------|------------|------------|---------------*|
 |----------|------------|------------|---------------*|
 |-4--------|-(4)--------|-(4)--------|-(4)--4/-------*|
 |-2--------|-(2)--------|-(2)--------|-(2)--2/-------*|

Duration Legend
 
 ---------------
 W - whole; H - half; Q - quarter; E - 8th; S - 16th; T - 32nd; X - 64th; a - acciaccatura

+ - note tied to previous; . - note dotted; .. - note double dotted
Uncapitalized letters represent notes that are staccato (1/2 duration)
Irregular groupings are notated above the duration line
Duration letters will always appear directly above the note/fret number it represents the
duration for. Duration letters with no fret number below them represent rests. Multi-
bar rests are notated in the form Wxn, where n is the number of bars to rest for. Low
melody durations appear below the staff
Tablature Legend
 
 ----------------

h - hammer-on
p - pull-off
b - bend
pb - pre-bend
r - bend release (if no number after the r, then release immediately)
/\ - slide into or out of (from/to "nowhere")
s - legato slide
S - shift slide
- natural harmonic
(n) - artificial harmonic
n(n) - tapped harmonic
~ - vibrato
tr - trill
T - tap
TP - trem. picking
PM - palm muting
\n/ - tremolo bar dip; n = amount to dip
\n - tremolo bar down
n/ - tremolo bar up
/n\ - tremolo bar inverted dip
= - hold bend; also acts as connecting device for hammers/pulls
- volume swell (louder/softer)
x - on rhythm slash represents muted slash
o - on rhythm slash represents single note slash
Misc Legend
 
 -----------

| - bar
|| - double bar
||o - repeat start
o|| - repeat end
*| - double bar (ending)
: - bar (freetime)
$ - Segno
& - Coda
Tempo markers - = BPM(8/16=s8/s16), where s8 = swing 8ths, s16 = swing 16ths

Important: The song above is NOT stored on the Chordie server. The original song is hosted at www.guitaretab.com. Chordie works as a search engine and provides on-the-fly formatting. Chordie does not index songs against artists'/composers' will. To remove this song please click here.

Text color:
Chord color:
Chord grids: 
Font size:    
Page size: 

A5 B5 D5 E5 F#5 G5
Rate #1 of 1 versions

Jango Player

Login - add to songbook

SHARE PAGE  




You need to log in to post comments