Guitar Tabs, Chords and Lyrics
Update 25:10. 13:00. Site is back up running again. Songbooks are recovered. Woring on getting search back up..


Jihad  Slayer

As recorded by Slayer
(From the 2006 Album CHRIST ILLUSION)
Transcribed by ENCODER-M.Yuksel
Words and Music by Tom Araya,Jeff Hanneman and Dave Lombardo
Arranged by Tom Araya,Jeff Hanneman and Dave Lombardo
Gtr I (Eb Ab Db Gb Bb Eb) - 'Gtr. 1'
Gtr II (Eb Ab Db Gb Bb Eb) - 'Gtr 2'
Gtr III (Eb Ab Db Gb Bb Eb) - 'Gtr 3'
Gtr IV (Eb Ab Db Gb Bb Eb) - 'Jeff Hanneman'
Gtr V (Eb Ab Db Gb Bb Eb) - 'Gtr 5'
Intro
Moderately Fast Rock Q=135
[Em7] 
[4/4] Gtr I
E e E e E e E e E e E e E Q. 5x E e E e E e E e
 
 ||-------------------10-|---10---------------||---------------------|
 ||o---12---12---12------|--------11---11----o||---12---12---12---10-|
 ||--9-------------------|--------------9-----||-9-------------------|
 ||----------------------|--------------------||---------------------|
 ||o---------------------|-------------------o||---------------------|
 ||--0--0----0----0----0-|----0----0----0-----||-0--0----0----0----0-|

|
| Gtrs II, III
| <
| W W 5x H Q Q
 
 ||----------------------|--------------------||---------------------|
 ||o---------------------|-------------------o||---------------------|
 ||----------------------|--------------------||---------------------|
 ||----------------------|--------------------||----------------0----|
 ||o---------------------|-------------------o||----------------0----|
 ||----------------------|--------------------||----------------0----|

E Em/maj7
Gtr I
E e E e E Q. E e E e E e E e E e E e E Q. 4x
 
 |-----10--------------||----12---12---12---15-|---15---11---11-----||
 |----------11---11----||o---------------------|--------------0----o||
 |----------------9----||--9-------------------|--------------------||
 |---------------------||----------------------|--------------------||
 |---------------------||o---------------------|-------------------o||
 |------0----0----0----||--0--0----0----0----0-|----0----0----0-----||

|
| Gtrs II, III Gtrs II, III
 
 | PM---------------| PM PM

| +W E E E E E E E E E E E E E Q. 4x
 
 |---------------------||----------------------|--------------------||
 |---------------------||o---------------------|-------------------o||
 |---------------------||----------------------|--------------------||
 |-(0)-----------------||--2--2----2----2----2-|----2----2----2-----||
 |-(0)-----------------||o-2--2----2----2----2-|----2----2----2----o||
 |-(0)-----------------||--0--0----0----0----0-|----0----0----0-----||

Slightly faster Q=144
N.C.
Gtrs II, III
PM PM| PM PM--| PM| PM
[E] [E] [E] [E] [E] [E] [E] [E] [E] [E] [E] [E] [E] [E] [E] [E] [E] [E] [E] [E] [E] [E] [E] [E]  
 
 |-----------------|--------------------|-----------------|
 |-----------------|--------------------|-----------------|
 |-----------------|--------------------|-----------------|
 |-----------------|--------8-----------|-----------------|
 |---7-8-----6-5---|-7-9-10---10-9-8----|---7-8-----6-5---|
 |-0-----9-8-----6-|-----------------10-|-0-----9-8-----6-|
 PM----| PM| PM PM--| PM| PM

[E] [E] [E] [E] [E] [E] [E] [E] [E] [E] [E] [E] [E] [E] [E] [E] [E] [E] [E] [E] [E] [E] [E] [E] [E] [E] [E] [E] [E] [E] [E] [E]  
 
 |--------------------|-----------------|--------------------|-----------------|
 |--------------------|-----------------|--------------------|-----------------|
 |--------------------|-----------------|--------------------|-----------------|
 |--------9-----------|-----------------|--------8-----------|-----------------|
 |-7-9-10---10-9------|---8-7-----7-6---|-7-9-10---10-9-8----|---8-7-----7-6---|
 |---------------10-9-|-0-----9-8-----7-|-----------------10-|-0-----9-8-----7-|

Faster Q=216
Gtr II[F5E5]
<
 
 PM------| PM--------------|

E E E E E E E E E E E E E E E E E E E E E Q.
 
 |--------------------|-----------------|----------------|
 |--------------------|-----------------|----------------|
 |--------------------|-----------------|----------------|
 |--------9-----------|-3-2---2---2---2-|-2-2---2---2----|
 |-7-9-10---10-9------|-3-2---2---2---2-|-2-2---2---2----|
 |---------------10-9-|-1-0---0---0---0-|-0-0---0---0----|

|
| Gtr III
 
 | PM----------------------------|

| E E E E E E E E E E E E Q E E E E E E E Q.
 
 |--------------------|-----------------|----------------|
 |--------------------|-----------------|----------------|
 |--------------------|-----------------|----------------|
 |--------9-----------|-3-2---2-------2-|-2-2---2---2----|
 |-7-9-10---10-9------|-3-2---2-------2-|-2-2---2---2----|
 |---------------10-9-|-1-0---0-------0-|-0-0---0---0----|

Verse
$
[E]Gtrs II, III
 
 PM----------------------------------------------|

S S S S S S S S S S S S S S S S E E E E E E E E
 
 |---------------------------------|-----------------
 |---------------------------------|-----------------
 |---------------------------------|-----------------
 |---------------------------------|---2---2---2-2-2-
 |---------------------------------|---2---2---2-2-2-
 |-0-0-0-0-0-0-0-0-0-0-0-0-0-0-0-0-|-0-0---0---0-0-0-

To Coda
To Coda
 
 PM----------------------------------------------|

S S S S S S S S S S S S S S S S E E E E E E E E 3x
 
 ||----------------------------------|-------------------||
 ||o---------------------------------|------------------o||
 ||----------------------------------|-------------------||
 ||----------------------------------|---2---2---2-2-2---||
 ||o---------------------------------|---2---2---2-2-2--o||
 ||--0-0-0-0-0-0-0-0-0-0-0-0-0-0-0-0-|-0-0---0---0-0-0---||

N.C.
 
 PM--------------------------------------------------|

S S S S S S S S E E S S E S S S S S S S S E E S S E
 
 |---------------------------|----------------------------|
 |---------------------------|----------------------------|
 |---------------------------|----------------------------|
 |---------------------------|----------------------------|
 |---------------------------|----------------------------|
 |-3-3-3-3-3-3-3-3-3---3-3-0-|-3-3-3-3-3-3-3-3-3---3-3-0--|

Gtr II
 
 PM------------------------------

S S S S S S S S E E S S E
 
 |--------------------------------|
 |--------------------------------|
 |--------------------------------|
 |--------------------------------|
 |--------------------------------|
 |-9-10-9-10-9-10-9-10-9---9-10-9-|

|
| Gtr III
 
 | PM------------------------------

| S S S S S S S S E E S S E
 
 |--------------------------------|
 |--------------------------------|
 |--------------------------------|
 |--------------------------------|
 |--------------------------------|
 |-3--3-3--3-3--3-3--3-3---3--3-0-|
 ---------------------| PM----------------------|

S S S S S S S S E E Q S S S S S S S S E E S S E
 
 |-------------------------------|---------------------------|
 |-------------------------------|---------------------------|
 |-------------------------------|---------------------------|
 |-------------------------------|---------------------------|
 |-------------------------------|---------------------------|
 |-9-10-9-10-9-10-9-10-9---9S====|=3-3-3-3-3-3-3-3-3---3-3-3-|

|
 
 |---------------------------------------------------------|

| S S S S S S S S E E S S E S S S S S S S S E E S S E
 
 |-------------------------------|---------------------------|
 |-------------------------------|---------------------------|
 |-------------------------------|---------------------------|
 |-------------------------------|---------------------------|
 |-------------------------------|---------------------------|
 |-3--3-3--3-3--3-3--3-3---3-3-0-|-3-3-3-3-3-3-3-3-3---3-3-0-|

Gtr II
 
 PM----------------------------------------------------------

S S S S S S S S E E S S E S S S S S S S S E E S S E
 
 |---------------------------|--------------------------------|
 |---------------------------|--------------------------------|
 |---------------------------|--------------------------------|
 |---------------------------|--------------------------------|
 |---------------------------|--------------------------------|
 |-3-3-3-3-3-3-3-3-3---3-3-3S|=9-10-9-10-9-10-9-10-9---9-10-9-|

|
| Gtr III
 
 | PM----------------------------------------------------------

| S S S S S S S S E E S S E S S S S S S S S E E S S E
 
 |---------------------------|--------------------------------|
 |---------------------------|--------------------------------|
 |---------------------------|--------------------------------|
 |---------------------------|--------------------------------|
 |---------------------------|--------------------------------|
 |-3-3-3-3-3-3-3-3-3---3-3-0-|-3--3-3--3-3--3-3--3-3---3--3-0-|

D.S. al Coda
 
 ------------------------------|

S S S S S S S S E E S S E
 
 |--------------------------------|
 |--------------------------------|
 |--------------------------------|
 |--------------------------------|
 |--------------------------------|
 |-9-10-9-10-9-10-9-10-9---9-10-9-|

|
 
 |------------------------------|

| S S S S S S S S E E S S E
 
 |--------------------------------|
 |--------------------------------|
 |--------------------------------|
 |--------------------------------|
 |--------------------------------|
 |-3--3-3--3-3--3-3--3-3---3--3-3-|

&
Gtr II
 
 PM--------------------------------------------------|

S S S S S S S S E E S S E S S S S S S S S E E S S E
 
 |---------------------------|-----------------------------|
 |---------------------------|-----------------------------|
 |---------------------------|-----------------------------|
 |---------------------------|-----------------------------|
 |---------------------------|-----------------------------|
 |-3-3-3-3-3-3-3-3-3---3-3-0-|-3-3-3-3-3-3-3-3-3---3-3-3S==|

|
| Gtr III
 
 | PM--------------------------------------------------|

| S S S S S S S S E E S S E S S S S S S S S E E S S E
 
 |---------------------------|-----------------------------|
 |---------------------------|-----------------------------|
 |---------------------------|-----------------------------|
 |---------------------------|-----------------------------|
 |---------------------------|-----------------------------|
 |-3-3-3-3-3-3-3-3-3---3-3-0-|-3-3-3-3-3-3-3-3-3---3-3-0---|

D.S. al Coda
Gtr II
 
 PM---------------------------------------------------|

S S S S S S S S E E S S E S S S S S S S S E E S S E
 
 |--------------------------------|---------------------------------||
 |--------------------------------|---------------------------------||
 |--------------------------------|---------------------------------||
 |--------------------------------|---------------------------------||
 |--------------------------------|---------------------------------||
 |-9-10-9-10-9-10-9-10-9---9-10-9-|-9-10-9-10-9-10-9-10-9---9-10-9--||

|
| Gtr III
 
 | PM------------------------------------------------------------|

| S S S S S S S S E E S S E S S S S S S S S E E S S E
 
 |--------------------------------|---------------------------------||
 |--------------------------------|---------------------------------||
 |--------------------------------|---------------------------------||
 |--------------------------------|---------------------------------||
 |--------------------------------|---------------------------------||
 |-3--3-3--3-3--3-3--3-3---3--3-0-|-3--3-3--3-3--3-3--3-3---3--3-0--||

&
Gtr II
 
 PM--------------------------------------------------|

S S S S S S S S E E S S E S S S S S S S S E E S S E
 
 ||----------------------------|----------------------------|
 ||o---------------------------|----------------------------|
 ||----------------------------|----------------------------|
 ||----------------------------|----------------------------|
 ||o---------------------------|----------------------------|
 ||--3-3-3-3-3-3-3-3-3---3-3-0-|-3-3-3-3-3-3-3-3-3---3-3-3S=|

|
| Gtr III
 
 | PM--------------------------------------------------|

| S S S S S S S S E E S S E S S S S S S S S E E S S E
 
 ||----------------------------|----------------------------|
 ||o---------------------------|----------------------------|
 ||----------------------------|----------------------------|
 ||----------------------------|----------------------------|
 ||o---------------------------|----------------------------|
 ||--3-3-3-3-3-3-3-3-3---3-3-0-|-3-3-3-3-3-3-3-3-3---3-3-0--|
 PM------------------------------------------------------------|

S S S S S S S S E E S S E S S S S S S S S E E S S E
 
 |--------------------------------|-----------------------------------||
 |--------------------------------|----------------------------------o||
 |--------------------------------|-----------------------------------||
 |--------------------------------|-----------------------------------||
 |--------------------------------|----------------------------------o||
 |-9-10-9-10-9-10-9-10-9---9-10-9-|-9-10-9-10-9-10-9-10-9---9-10-9\---||

|
 
 | PM------------------------------------------------------------|

| S S S S S S S S E E S S E S S S S S S S S E E S S E
 
 |--------------------------------|-----------------------------------||
 |--------------------------------|----------------------------------o||
 |--------------------------------|-----------------------------------||
 |--------------------------------|-----------------------------------||
 |--------------------------------|----------------------------------o||
 |-3--3-3--3-3--3-3--3-3---3--3-3-|-3--3-3--3-3--3-3--3-3---3--3-3----||

Chorus
[D#5]Gtrs II,[E5] III[F5] [D#5] [E5]
 
 PM--| PM--| PM--| PM--| PM--| PM--|

[E] [E] [E] [E] [E] [E] [E] [E] [E] [E] [E] [E] [E] [E] [E] [E] [E] [E] [E] [E] [E] [E] [E] [E]  
 
 |-----------------|-----------------|-----------------|
 |-----------------|-----------------|-----------------|
 |-----------------|-----------------|-----------------|
 |-1-------2-------|-3-------1-------|-1-------2-------|
 |-1-------2-------|-3-------1-------|-1-------2-------|
 |---3-2-1---3-2-1-|---2-1-0---2-1-0-|---3-2-1---3-2-1-|

[F5] [D#5] [Eb5/Bb] [E5] [F5] [D#5]  
 
 PM--| PM--| PM--| PM--| PM--| PM--|

[E] [E] [E] [E] [E] [E] [E] [E] [E] [E] [E] [E] [E] [E] [E] [E] [E] [E] [E] [E] [E] [E] [E] [E]  
 
 |-----------------|-----------------|-----------------|
 |-----------------|-----------------|-----------------|
 |-----------------|-----------------|-----------------|
 |-3-------1-------|-1-------2-------|-3-------1-------|
 |-3-------1-------|-1-------2-------|-3-------1-------|
 |---2-1-0---2-1-0-|---3-2-1---3-2-1-|---2-1-0---2-1-0-|

E5 F5 D#5 N.C.
 
 PM--| PM--| PM--| PM--|
 |-----3------|

[E] [E] [E] [E] [E] [E] [E] [E] [E] [E] [E] [E] [E] [E] [E] [E] [E] [E] [E] [E] [E] [E] [E] [+E] [E]  
 
 |-----------------|-----------------|----------------------------------||
 |-----------------|-----------------|----------------11b12==(11)r(11)--||
 |-----------------|-----------------|----------12-11-------------------||
 |-1-------2-------|-3-------1-------|-------10-------------------------||
 |-1-------2-------|-3-------1-------|----------------------------------||
 |---3-2-1---3-2-1-|---2-1-0---3-2-1-|-0--------------------------------||

Verse
E N.C.
Gtr II
 
 PM--------------------------|
 |-----3------|

E E E E S S E S S E S S E E E E E E +E E
 
 ||----------------------|-----------------------------------|
 ||o---------------------|------------------11b12==(11)r(11)-|
 ||----------------------|------------12-11------------------|
 ||----------------------|---------10------------------------|
 ||o---------------------|-----------------------------------|
 ||--0-0-0-0-0-0-0-0-0-0-|-0-0-0-0---------------------------|

|
| Gtr III
 
 | PM--------------------------|
 | |-----3------|

| E E E E S S E S S E S S E E E E E E +E E
 
 ||----------------------|-----------------------------------|
 ||o---------------------|-----------------------------------|
 ||----------------------|------------------11b12==(11)r(11)-|
 ||----------------------|------------13-12------------------|
 ||o---------------------|---------11------------------------|
 ||--0-0-0-0-0-0-0-0-0-0-|-0-0-0-0---------------------------|

E N.C.
Gtrs II, III
 
 PM--------------------------|
 |-----3------|

E E E E S S E S S E S S E E E E E E +E E
 
 |---------------------|-----------------------------------|
 |---------------------|------------------11b12==(11)r(11)-|
 |---------------------|------------12-11------------------|
 |---------------------|---------10------------------------|
 |---------------------|-----------------------------------|
 |-0-0-0-0-0-0-0-0-0-0-|-0-0-0-0---------------------------|

E N.C.
Gtr III
 
 PM--------------------------|
 |-----3------|

E E E E S S E S S E S S E E E E E E +E E
 
 |---------------------|-----------------------------------|
 |---------------------|-----------------------------------|
 |---------------------|------------------11b12==(11)r(11)-|
 |---------------------|------------13-12------------------|
 |---------------------|---------11------------------------|
 |-0-0-0-0-0-0-0-0-0-0-|-0-0-0-0---------------------------|

E N.C.
Gtr II
 
 PM--------------------------|

E E E E S S E S S E S S E E E E E E E
 
 |---------------------|------------------------||
 |---------------------|------------------11----||
 |---------------------|------------12-11----12-||
 |---------------------|---------10-------------||
 |---------------------|------------------------||
 |-0-0-0-0-0-0-0-0-0-0-|-0-0-0-0----------------||

|
| Gtr III
 
 | PM--------------------------|

| E E E E S S E S S E S S E E E E E E E
 
 |---------------------|------------------------||
 |---------------------|------------------------||
 |---------------------|-------------------8----||
 |---------------------|------------10--9-----9-||
 |---------------------|----------8-------------||
 |-0-0-0-0-0-0-0-0-0-0-|-0-0-0-0----------------||

|
| Gtr III
| W S S E E E E E E E
 
 |---------------------|------------------------||
 |---------------------|------------------------||
 |---------------------|-------------------7----||
 |---------------------|----------8--9--8-----8-||
 |---------------------|------------------------||
 |---------------------|-0-0-0-0----------------||

Interlude
1.
[D5] [Db5] [C5] [D5] [Db5] [Bb5] 
[7/4] Gtrs II, III
[E] [E] [E] [E] [E] [E] [E] [E] [E] [E] [E] [E] [E] [E]  
 
 |-----------------------------------------|
 |-----------------------------------------|
 |-----------------------------------------|
 |-----------------------------------------|
 |-12-11-11-10-10-10-12-12-12-11-11-11-8-8S|
 |-10--9--9--8--8--8-10-10-10--9--9--9-6-6S|

[D5] [Db5] [C5] [D5] [Db5] [Bb5] 
[E] [E] [E] [E] [E] [E] [E] [E] [E] [E] [E] [E] [E] [E]  
 
 |------------------------------------------|
 |------------------------------------------|
 |------------------------------------------|
 |------------------------------------------|
 |-12-11-11-10-10-10-12-12-12-11-11-11-8-8S=|
 |-10--9--9--8--8--8-10-10-10--9--9--9-6-6S=|

[D5] E [Db5] E E [C5] E E E [D5] E E E [Db5] E E E [Bb5]Q
 
 |-----------------------------------------||
 |----------------------------------------o||
 |-----------------------------------------||
 |-----------------------------------------||
 |-12-11-11-10-10-10-12-12-12-11-11-11-8--o||
 |-10--9--9--8--8--8-10-10-10--9--9--9-6---||

2.
[D5] [Db5] [C5] [D5] [Db5] [Bb5] 
[E] [E] [E] [E] [E] [E] [E] [E] [E] [E] [E] [E] [E] [E]  
 
 |------------------------------------------|
 |------------------------------------------|
 |------------------------------------------|
 |------------------------------------------|
 |-12-11-11-10-10-10-12-12-12-11-11-11-8-8S=|
 |-10--9--9--8--8--8-10-10-10--9--9--9-6-6S=|

[D5]Gtr[Db5]s II, [C5]III[D5] [Db5] [Bb5]
[E] [E] [E] [E] [E] [E] [E] [E] [E] [E] [E] [E] [E] [E]  
 
 |-----------------------------------------|
 |-----------------------------------------|
 |-----------------------------------------|
 |-----------------------------------------|
 |-12-11-11-10-10-10-12-12-12-11-11-11-8-8S|
 |-10--9--9--8--8--8-10-10-10--9--9--9-6-6S|

[D5] [Db5] [C5] [D5] [Db5] [Bb5] 
[E] [E] [E] [E] [E] [E] [E] [E] [E] [E] [E] [E] [E] [E]  
 
 |------------------------------------------|
 |------------------------------------------|
 |------------------------------------------|
 |------------------------------------------|
 |-12-11-11-10-10-10-12-12-12-11-11-11-8-8S=|
 |-10--9--9--8--8--8-10-10-10--9--9--9-6-6S=|

[D5] E [Db5] E E [C5] E E E [D5] E E E [Db5] E E E [Bb5] Q
 
 |----------------------------------------------|
 |----------------------------------------------|
 |----------------------------------------------|
 |----------------------------------------------|
 |-12--11-11-10-10-10-12--12-12-11-11-11----8---|
 |-10---9--9--8--8--8-10--10-10--9--9--9----6---|

|
| Gtr IV
| H. H. a E E
 
 |--------------------------------------------0-|
 |---------------------------------------5s17---|
 |----------------------------------------------|
 |----------------------------------------------|
 |----------------------------------------------|
 |----------------------------------------------|

Guitar Solo
[F5]  
[4/4] Gtr IV
S S E S S E S S E S S E
 
 |-12-14-15---12-14-15---12-14-15-12-14-15-|
 |-----------------------------------------|
 |-----------------------------------------|
 |-----------------------------------------|
 |-----------------------------------------|
 |-----------------------------------------|

|
| Gtrs II, III
 
 | PM-----------------| PM----------

| S S S S S S S S E E E E
 
 |-----------------------------------------|
 |-----------------------------------------|
 |-----------------------------------------|
 |-----------------------------------------|
 |------------------------3----------------|
 |--0--0--0-0--0--0--0-0--1-----0--0-----0-|

S S E S S E S S E S S S S
 
 |-15-17-18---15-17-18---15-17-18-15-17-18-0--|
 |--------------------------------------------|
 |--------------------------------------------|
 |--------------------------------------------|
 |--------------------------------------------|
 |--------------------------------------------|

|
 
 |---------------------| PM------|

| S S S S S S S S E E E E
 
 |--------------------------------------------|
 |--------------------------------------------|
 |--------------------------------------------|
 |--------------------------------------------|
 |------------------------3-------------------|
 |--0--0--0-0--0--0--0-0--1-----0--0-----0----|

Gtr IV
S S E S S E S S E S S S S
 
 |-11-12-14---11-12-14---11-12-14-11-12-14-0-|
 |-------------------------------------------|
 |-------------------------------------------|
 |-------------------------------------------|
 |-------------------------------------------|
 |-------------------------------------------|

|
| Gtrs II, III
 
 | PM-----------------| PM------------

| S S S S S S S S E E E E
 
 |-------------------------------------------|
 |-------------------------------------------|
 |-------------------------------------------|
 |-------------------------------------------|
 |------------------------3------------------|
 |--0--0--0-0--0--0--0-0--1-----0--0-----0---|
 |----3----|

S S S S E E E E +E Q
 
 |-12-13-15-13-12-------------------------|
 |------------------14---12---------------|
 |----------------------------14-(14)s5S==|
 |----------------------------------------|
 |----------------------------------------|
 |----------------------------------------|

|
 
 |--------------------------| PM---|

| S S S S S S S S E E E E
 
 |----------------------------------------|
 |----------------------------------------|
 |----------------------------------------|
 |----------------------------------------|
 |-----------------------------3----------|
 |--0--0--0--0--0-0----0----0--1---0--0-0-|

~~~~~~~~~
Q. E +Q Q a +Q +E E +Q Q
 
 |-------------------------------|----------------------------------------|
 |-------------------------------|----------------------------------------|
 |-12------------11---(11)---9---|-7pb8==(7)r======(7)--------------------|
 |-------------------------------|-----------------------10---(10)---9\---|
 |-------------------------------|----------------------------------------|
 |-------------------------------|----------------------------------------|

|
 
 | PM--------------| PM-------------------------------| PM---|

| S S S S S S S S E E E E S S S S S S S S E E E E
 
 |-------------------------------|----------------------------------------|
 |-------------------------------|----------------------------------------|
 |-------------------------------|----------------------------------------|
 |-------------------------------|----------------------------------------|
 |----------------------3--------|------------------------------3---------|
 |--0--0-0-0-0-0--0-0---1--0-0-0-|--------0--0-0-0--0--0--0-0---1--0-0--0-|

Q. E +Q a +E E
 
 |---------------------------------------------|
 |---------------------------------------------|
 |-9------------11---(11)---11pb12==(11)r(11)--|
 |---------------------------------------------|
 |---------------------------------------------|
 |---------------------------------------------|

|
| S S S S S S S S E E E E
 
 |---------------------------------------------|
 |---------------------------------------------|
 |---------------------------------------------|
 |---------------------------------------------|
 |---------------------3-----------------------|
 |-0--0-0-0-0-0--0-0---1--0-----------0----0---|

~
H a Q a E E
 
 |-----------------------------0-|
 |------------------------5s17---|
 |-8---------------8s9\----------|
 |-------------------------------|
 |-------------------------------|
 |-------------------------------|

|
 
 | PM------------| PM--------

| S S S S S S S S E E E E
 
 |-------------------------------|
 |-------------------------------|
 |-------------------------------|
 |-------------------------------|
 |-------------------3-----------|
 |-0-0-0-0-0-0-0-0---1--0----0-0-|
 |---3---|

S S S S S S S S E E E S S S S
 
 |-15-15-19-19-15-15-17-15----15---19-15-15-17-15--|
 |-------------------------17----------------------|
 |-------------------------------------------------|
 |-------------------------------------------------|
 |-------------------------------------------------|
 |-------------------------------------------------|

|
 
 |----------------------| PM---------|

| S S S S S S S S E E E E
 
 |-------------------------------------------------|
 |-------------------------------------------------|
 |-------------------------------------------------|
 |-------------------------------------------------|
 |--------------------------3----------------------|
 |--0--0--0--0--0--0--0--0--1----0-----0-----0-----|
 |------6------|

+S S S S +S S S S S S E S S E S S
 
 |-(15)----15-19-(19)-15-17-15----15-19---15-17-15----15-|
 |------17---------------------17------------------17----|
 |-------------------------------------------------------|
 |-------------------------------------------------------|
 |-------------------------------------------------------|
 |-------------------------------------------------------|

|
 
 | PM---------------------| PM----------------

| S S S S S S S S E E E E
 
 |-------------------------------------------------------|
 |-------------------------------------------------------|
 |-------------------------------------------------------|
 |-------------------------------------------------------|
 |------------------------------3------------------------|
 |---0---0--0--0---0---0--0--0--1-------0--------0--0----|

~~~~~~~~~~~~~~~~~~~~~~~~~~~~~~~~~~
E S S S S E E S S E E Q Q +Q. +E
 
 |-19---17-15----15-19---15----15-19----|------------------------------------|
 |------------17------------17-------17-|-17-------(17)-------(17)-----(17)\-|
 |--------------------------------------|-----------17--------(17)-----(17)\-|
 |--------------------------------------|------------------------------------|
 |--------------------------------------|------------------------------------|
 |--------------------------------------|------------------------------------|

|
 
 |---------------------| PM-----------------------| PM--|

| S S S S S S S S E E E E S S S S S S S S E E E E
 
 |--------------------------------------|------------------------------------|
 |--------------------------------------|------------------------------------|
 |--------------------------------------|------------------------------------|
 |--------------------------------------|------------------------------------|
 |------------------------3-------------|-----------------------3------------|
 |--0-0--0--0--0--0--0-0--1--0-----0--0-|--0-0-0-0---0--0-0-0---1--0-0---0---|

[Bb5A5] [G#5] [Bb5] [A5] [F#5] 
[7/4] Gtr V
~~~~~~~ ~~~
E E E E +Q S E. +E Q. E +E
 
 |---------------------------------------------------|
 |-16-----------------15s18----(18)-17---------------|
 |----14-14-13-(13)-------------------------16-(16)\-|
 |---------------------------------------------------|
 |---------------------------------------------------|
 |---------------------------------------------------|

|
| Gtrs II, III
| E E E E E E E E E E E E Q
 
 |---------------------------------------------------|
 |---------------------------------------------------|
 |---------------------------------------------------|
 |---------------------------------------------------|
 |--8--7--7--6---6--6--8-----8---8---7--7-7--4S======|
 |--6--5--5--4---4--4--6-----6---6---5--5-5--2S======|

[Bb5A5] [G#5]~~~~~~ [Bb5] [A5] ~~~[F#5]
E E E E +Q Q +E Q. Q
 
 |------------------------------------------|
 |-11-10------------------------------------|
 |-------9-8-(8)---/11---(11)-10------------|
 |------------------------------------11\---|
 |------------------------------------------|
 |------------------------------------------|

|
| E E E E E E E E E E E E Q
 
 |------------------------------------------|
 |------------------------------------------|
 |------------------------------------------|
 |------------------------------------------|
 |--8--7-7-6--6--6---8-8---8---7--7-7--4S===|
 |--6--5-5-4--4--4---6-6---6---5--5-5--2S===|

a [Bb5A5]Q. a [G#5]E +E E [Bb5]E E Q. [A5] E [F#5] +Q
 
 |----------7s9-(9)s5S9s7S9------12-(12)-|
 |-7s9\-----7s9-(9)s5S9s7S9------12-(12)-|
 |---------------------------------------|
 |---------------------------------------|
 |---------------------------------------|
 |---------------------------------------|

|
| E E E E E E E E E E E E Q
 
 |---------------------------------------|
 |---------------------------------------|
 |---------------------------------------|
 |---------------------------------------|
 |---8--7-7---6--6--6-8-8-8--7-7--7---4S=|
 |---6--5-5---4--4--4-6-6-6--5-5--5---2S=|

[Bb5A5]Q. [G#5]E E +E a [Bb5] Q +E a [A5] Q a E [F#5] +Q
 
 |--------7s11-(11)\-9s11---(11)\-9s11S==9s11-(11)---|
 |--------7s11-(11)\-9s11---(11)\-9s11S==9s11-(11)---|
 |-0-------------------------------------------------|
 |-0-------------------------------------------------|
 |---------------------------------------------------|
 |---------------------------------------------------|

|
| E E E E E E E E E E E E Q
 
 |---------------------------------------------------|
 |---------------------------------------------------|
 |---------------------------------------------------|
 |---------------------------------------------------|
 |-8--7-7-6--6---6------8-8---8------7-7----7---4----|
 |-6--5-5-4--4---4------6-6---6------5-5----5---2----|

[F5]  
[4/4] /1.5______________________
~~~~~~~~~~~~~~~~~~~~~~~~~~~~~~~~~~~~~ ~~~~~~~~~~~
H. Q +H +H +H +Q. +E +H +H
 
 |-14-------------|-----------------|------------------------|-----------------||
 |-14-------[14]--|-(14)----(14)----|-(14)----(14)---(14)----|-(14)----(14)----||
 |----------------|-----------------|------------------------|-----------------||
 |----------------|-----------------|------------------------|-----------------||
 |----------------|-----------------|------------------------|-----------------||
 |----------------|-----------------|------------------------|-----------------||

|
| W +W +W +W
 
 |----------------|-----------------|------------------------|-----------------||
 |----------------|-----------------|------------------------|-----------------||
 |----------------|-----------------|------------------------|-----------------||
 |----------------|-----------------|------------------------|-----------------||
 |--3-------------|--(3)------------|--(3)-------------------|--(3)------------||
 |--1-------------|--(1)------------|--(1)-------------------|--(1)------------||

Outro
Half time feel Q=102
[E5]Gtr V
|
~~~~~
+E E Q H W W
 
 |----------------------|------------------|-------------------|
 |-(14)\----------------|------------------|-------------------|
 |----------------------|------------------|-------------------|
 |----------------------|------------------|-------------------|
 |----------------------|------------------|-------------------|
 |----------------------|------------------|-------------------|

|
| Gtr II
| E E E E E E E E E E E E E E E E E E E E E E E E
 
 |----------------------|------------------|-------------------|
 |----------------------|------------------|-------------------|
 |----------------------|------------------|-------------------|
 |-------9-8------8-----|---9-8------8-----|----9-8------8-----|
 |-----------10-9---9-8-|-------10-9---9-8-|--------10-9---9-8-|
 |---0------------------|-0----------------|-0-----------------|

|
| Gtr III
| W W H. Q
 
 |----------------------|------------------|-------------------|
 |----------------------|------------------|-------------------|
 |----------------------|------------------|-------------------|
 |---2------------------|-2----------------|-2-------------2---|
 |---2------------------|-2----------------|-2-------------2---|
 |---0------------------|-0----------------|-0-------------0---|

Gtr II
[E] [E] [E] [E] [E] [E] [E] [E] [E] [E] [E] [E] [E] [E] [E] [E] [E] [E] [E] [E] [E] [E] [E] [E]  
 
 |-------------------------|------------------|------------------|
 |-------------------------|------------------|------------------|
 |-------------------------|------------------|------------------|
 |---9-8-----------8-------|---9-8------8-----|---9-8------8-----|
 |-------10--9-------8--7--|-------10-9---9-8-|-------10-9---8-7-|
 |-0-----------------------|-0----------------|-0----------------|

|
| Gtr III
| \1.5_________________________________________________
| H +Q. +E E E E E E E E E E E E E E E E E
 
 |-------------------------|------------------|------------------|
 |-------------------------|------------------|------------------|
 |-------------------------|------------------|------------------|
 |-------------------------|------------------|------------------|
 |-------------------------|---2-1------1-----|---2-1------1-----|
 |-0--------(0)--------(0)-|-0------3-2---2-1-|-0------3-2---1-0-|

[E] [E] [E] [E] [E] [E] [E] [E] [E] [E] [E] [E] [E] [E] [E] [E] [E] [E] [E] [E] [E] [E] [E] [E]  
 
 |------------------|------------------|------------------|
 |------------------|------------------|------------------|
 |------------------|------------------|------------------|
 |---9-8------8-----|---9-8------8-----|---9-8------8-----|
 |-------10-9---9-8-|-------10-9---8-7-|-------10-9---9-8-|
 |-0----------------|-0----------------|-0----------------|

|
| E E E E E E E E E E E E E E E E E E E E E E E E
 
 |------------------|------------------|------------------|
 |------------------|------------------|------------------|
 |------------------|------------------|------------------|
 |------------------|------------------|------------------|
 |---2-1------1-----|---2-1------1-----|---2-1------1-----|
 |-0------3-2---2-1-|-0------3-2---1-0-|-0------3-2---2-1-|

[E] [E] [E] [E] [E] [E] [E] [E] [E] [E] [E] [E] [E] [E] [E] [E] [E] [E] [E] [E] [E] [E] [E] [E]  
 
 |------------------|------------------|------------------|
 |------------------|------------------|------------------|
 |------------------|------------------|------------------|
 |---9-8------8-----|---9-8------8-----|---9-8------8-----|
 |-------10-9---8-7-|-------10-9---9-8-|-------10-9---8-7-|
 |-0----------------|-0----------------|-0----------------|

|
| E E E E E E E E E E E E E E E E E E E E E E E E
 
 |------------------|------------------|------------------|
 |------------------|------------------|------------------|
 |------------------|------------------|------------------|
 |------------------|------------------|------------------|
 |---2-1------1-----|---2-1------1-----|---2-1------1-----|
 |-0------3-2---1-0-|-0------3-2---2-1-|-0------3-2---1-0-|

E E E E E E E E E E E E E E E E E E E E E E E E E E E E E E Q
 
 |------------------|------------------|------------------|-----------------*|
 |------------------|------------------|------------------|-----------------*|
 |------------------|------------------|------------------|-----------------*|
 |---9-8------8-----|---9-8------8-----|---9-8------8-----|---9-8------8----*|
 |-------10-9---9-8-|-------10-9---8-7-|-------10-9---9-8-|-------10-9------*|
 |-0----------------|-0----------------|-0----------------|-0---------------*|

|
| E E E E E E E E E E E E E E E E E E E E E E E E E E E E E E Q
 
 |------------------|------------------|------------------|-----------------*|
 |------------------|------------------|------------------|-----------------*|
 |------------------|------------------|------------------|-----------------*|
 |------------------|------------------|------------------|-----------------*|
 |---2-1------1-----|---2-1------1-----|---2-1------1-----|---2-1------1----*|
 |-0------3-2---2-1-|-0------3-2---1-0-|-0------3-2---2-1-|-0------3-2------*|

Duration Legend
 
 ---------------
 W - whole; H - half; Q - quarter; E - 8th; S - 16th; T - 32nd; X - 64th; a - acciaccatura

+ - note tied to previous; . - note dotted; .. - note double dotted
Uncapitalized letters represent notes that are staccato (1/2 duration)
Irregular groupings are notated above the duration line
Duration letters will always appear directly above the note/fret number it represents the
duration for. Duration letters with no fret number below them represent rests. Multi-
bar rests are notated in the form Wxn, where n is the number of bars to rest for. Low
melody durations appear below the staff
Tablature Legend
 
 ----------------

h - hammer-on
p - pull-off
b - bend
pb - pre-bend
r - bend release (if no number after the r, then release immediately)
/\ - slide into or out of (from/to "nowhere")
s - legato slide
S - shift slide
- natural harmonic
(n) - artificial harmonic
n(n) - tapped harmonic
~ - vibrato
tr - trill
T - tap
TP - trem. picking
PM - palm muting
\n/ - tremolo bar dip; n = amount to dip
\n - tremolo bar down
n/ - tremolo bar up
/n\ - tremolo bar inverted dip
= - hold bend; also acts as connecting device for hammers/pulls
- volume swell (louder/softer)
x - on rhythm slash represents muted slash
o - on rhythm slash represents single note slash
Misc Legend
 
 -----------

| - bar
|| - double bar
||o - repeat start
o|| - repeat end
*| - double bar (ending)
: - bar (freetime)
$ - Segno
& - Coda
Tempo markers - = BPM(8/16=s8/s16), where s8 = swing 8ths, s16 = swing 16ths

Important: The song above is NOT stored on the Chordie server. The original song is hosted at www.guitaretab.com. Chordie works as a search engine and provides on-the-fly formatting. Chordie does not index songs against artists'/composers' will. To remove this song please click here.

Text color:
Chord color:
Chord grids: 
Font size:    
Page size: 

A5 Bb5 C5 D#5 D5 Db5 E E5 Em7 F#5 F5 G#5
Rate #1 of 3 versions

Jango Player

Login - add to songbook

SHARE PAGE  




You need to log in to post comments