Guitar Tabs, Chords and Lyrics
Major upgrade!! After one year development the new version of Chordie is now online! Please give feedback.


I Can Feel It  Sloan

Band: Sloan
Song: I Can Feel It
Album: Twice Removed
Tabbed By: Andrew Parker
Age: 16
Band: Tabzero
Genre: Punk/Alt Rock
Website: http://www.purevolume.com/tabzero
Email: hyperandy@hotmail.com
I decided that there was not one good tab for this song, other tabs have the chords
I figured it out.
This Tab contains the second guitar.
h=Hammer on
p=pull off
Intro
Rythym Guitar (Chords)
[Cadd9] [G] [E] [F]  
 
 |-----0-----3-----0-----1----|
 |-----3-----3-----0-----1----|
 |-----0-----0-----0-----2----|
 |-----2-----0-----2-----3----|
 |-----3-----2-----2----------|
 |-----------3-----0----------|

Listen For Rythym
Lead Guitar
(slides alot)
[C] [G] [E] [F]  
 
 |-----------------------------------------------------|
 |-----13-13--12--12--10-13--12---12-12--10---10h12p10-|
 |-----12-12--12--12--12-12--9----9--9---10------------|
 |-----------------------------------------------------|
 |-----------------------------------------------------|
 |-----------------------------------------------------|

[C] [G] [E] [F]  
 
 |-----------------------------------------------------|
 |-----13-13--12--12--10-13-12---12-12--10--------10---|
 |-----12-12--12--12--12-12-9----9--9---10---10h12--10-|
 |-----------------------------------------------------|
 |-----------------------------------------------------|
 |-----------------------------------------------------|

[F] [FMaj7]  
 
 |---------------13---15-13--12---|
 |-----------10--------------13---|
 |-10---10h12--10-----------------|
 |--------------------------------|
 |--------------------------------|
 |--------------------------------|

Verse (Chords)
[FMaj7] [Cadd9] [B] [m7] [E7]  
 
 |-----0-----0-----0-----0-----|
 |-----1-----3-----3-----3-----|
 |-----2-----0-----2-----1-----|
 |-----3-----2-----0-----2-----|
 |-----------3-----2-----2-----|
 |-----------------0-----0-----|

Chorus (Chords)
[A] [Bm] [D] [D]  
 
 |---0---0---2-----2--|
 |---2---3---3-----3--|
 |---2---4---2-----2--|
 |---2---4---0-----0--|
 |---0---2------------|
 |--------------------|

BRIDGE (same as Chorus)
Alternate Intro
Second Guitar
[Cadd9] [G] [E] [F]  
 
 |-------------------------------------------------------|
 |-----13-13--12--12--10-13-12---12-----10-10---10h12p10-|
 |-----12-12--12--12--12-12-9------9----10---10----------|
 |-------------------------------------------------------|
 |-------------------------------------------------------|
 |-------------------------------------------------------|

[Cadd9] [G] [E] [F]  
 
 |--------------------------------------------------|
 |-----13-13--12------10-13---12--12----10h12-10----|
 |-12--12-12--12------12-12-9----9----10--------10--|
 |-14-----------------------------------------------|
 |--------------------------------------------------|
 |--------------------------------------------------|

[F] [FMaj7]  
 
 |--------------13---15----15--|
 |-----10-10-------------13----|
 |10h12-----10-----------------|
 |-----------------------------|
 |-----------------------------|
 |-----------------------------|

SONG ORDER:
INTRO
VERSE
CHORUS
VERSE (NO LYRICS)
VERSE
CHORUS
BRIDGE
INTRO
VERSE
LYRICS:
INTRO
VERSE
She came runnin'
I hate everything that came before me
Crush
I'm breakin' under the crush
Don't ignore me
'Cause you know I can always make it louder
Three
Three's nothin' out of ten
CHORUS
But you've got a thing for me
I can feel it, I can feel it
And I've got a thing for you, too
You can have it, you can have it
VERSE (NO LYRICS)
VERSE
I've been runnin'
Just to get away from what's inside me
Rush
I'm drownin' under the rush
Happy birthday
To the best brother in the world
Hooray
At least I'm still cool to one girl
CHORUS
But you've got a thing for me
I can feel it, I can feel it
And I've got a thing for you, too
You can have it, you can have it
You've got a thing for me
I can feel it, I can feel it
And I've got a thing for you, too
You can have it
BRIDGE
No strings attached
No copy to match
No drift to catch
No plans to hatch
No itch to scratch
Just infatuation
Is all you need
ALTERNATE INTRO
VERSE
You could tell a million lies
And I'd think they all were true
Trust
That's my trust in you
It's what I value
And it's what I refuse to lose
You've got a thing for me
And I've got a thing for you, too
Thats All. don't forget to check out my band, www.purevolume.com/tabzero.

Important: The song above is NOT stored on the Chordie server. The original song is hosted at www.guitaretab.com. Chordie works as a search engine and provides on-the-fly formatting. Chordie does not index songs against artists'/composers' will. To remove this song please click here.

Text color:
Chord color:
Chord grids: 
Font size:    
Page size: 

A B Bm C Cadd9 D E E7 F Fmaj7 G
Rate #5 of 6 versions

Login - add to songbook

SHARE PAGE  




You need to log in to post comments