Guitar Tabs, Chords and Lyrics
Server problems seems to be fixed. Chordie has been experiencing problems with songs disappearing. These issues now seems to be fixed, but still verifying the fix. If you find anything strange, please email admin@chordie.com.


Can't Get Enough of You Baby  Smash Mouth

 
 -------------------------------------------------------------------------------

CAN'T GET ENOUGH OF YOU BABY - Smash Mouth
 
 -------------------------------------------------------------------------------

Tabbed by: metallhead
Email: homesticky@gmail.com
Tuning: E A D G B E
Gtr I (E A D G B E) - 'Sawtooth'
Gtr II (E A D G B E) - 'Guitar'
Gtr III (E A D G B E) - 'Organ'
Gtr IV (E A D G B E) - 'Vocals'
Q=126
[4/4] Gtr I
H E S S S S S S S E S S E S S S S S E E
 
 |--------14---17---19---|-19-20---19-20---19-20-19---------|
 |-----------------------|----------------------------19-17-|
 |-----------------------|----------------------------------|
 |-----------------------|----------------------------------|
 |-----------------------|----------------------------------|
 |-----------------------|----------------------------------|

|
| Gtr II
| H E S S S S S S Q Q S S S S E E
 
 |-----------------------|----------------------------------|
 |--------------2----4---|--5-------5-------4--5--4---------|
 |---------3----3----4---|--6-------6-------4--6--4----3--1-|
 |---------4-------------|-----------------------------4--2-|
 |-----------------------|----------------------------------|
 |-----------------------|----------------------------------|

Gtr III
S S S S S S S S S S E +S S E
 
 |-21---21---21---21---23---23-(23)---24--|
 |-23---23---23---23---24---24-(24)---23--|
 |-23---23---23---23---23---23-(23)---23--|
 |----------------------------------------|
 |----------------------------------------|
 |----------------------------------------|

|
| Q E E E E E E
 
 |------------2------------------2--------|
 |------------2------------------4--------|
 |------------3------------------4--------|
 |------------4------------------4--------|
 |---------------------------2------------|
 |--2-------------------------------------|

Gtr II
Q E E E E E E
 
 |--------------2-------------------2------|
 |--------------2-------------------4------|
 |--------------3-------------------4------|
 |--------------4-------------------4------|
 |-----------------------------2-----------|
 |---2-------------------------------------|

|
| Gtr III
| +S S S S S S S S S S S S E S S
 
 |-(24)---21---21--------23---23---23------|
 |-(23)---23---23---19---24---24---24------|
 |-(23)---23---23--------23---23---23-23---|
 |-----------------------------------------|
 |-----------------------------------------|
 |-----------------------------------------|

Q E E E E E E
 
 |------------2------------------2-------|
 |------------2------------------4-------|
 |------------3------------------4-------|
 |------------4------------------4-------|
 |---------------------------2-----------|
 |--2------------------------------------|

|
| S S S S S S S S S S E +S S E
 
 |-21---21---21---21---23---23-(23)---24-|
 |-23---23---23---23---24---24-(24)---23-|
 |-23---23---23---23---23---23-(23)---23-|
 |---------------------------------------|
 |---------------------------------------|
 |---------------------------------------|

Q E E E E E E
 
 |--------------2-------------------2------|
 |--------------2-------------------4------|
 |--------------3-------------------4------|
 |--------------4-------------------4------|
 |-----------------------------2-----------|
 |---2-------------------------------------|

|
| +S S S S S S S S S S S S E S S
 
 |-(24)---21---21--------23---23---23------|
 |-(23)---23---23---19---24---24---24------|
 |-(23)---23---23--------23---23---23-23---|
 |-----------------------------------------|
 |-----------------------------------------|
 |-----------------------------------------|

|
| Gtr IV
| H Q E S S
 
 |-----------------------------------------|
 |-----------------------------------------|
 |-----------------------------------------|
 |-------------------------------------4---|
 |-----------------------------------------|
 |-----------------------------------------|

Q S S E Q S S E Q S S E Q S S E
 
 |----2---------2-----|--------2--------------2-------|
 |----2---------4-----|--------2--------------4-------|
 |----3---------4-----|--------3--------------4-------|
 |----4---------4-----|--------4--------------4-------|
 |--------------------|-------------------------------|
 |-2------------------|-------------------------------|

|
| W W
 
 |--------------------|-------------------------------|
 |--------------------|-------------------------------|
 |--------------------|-------------------------------|
 |--------------------|-------------------------------|
 |--------------------|-------------------------------|
 |--------------------|-------------------------------|

|
| Q E E E E E E +E E +Q +S S E E S S
 
 |--------------------|-------------------------------|
 |----2---------------|-------------------------------|
 |--------2-4-2-4---2-|-(2)---------------------------|
 |-4------------------|-----4-(4)-----(4)---------4---|
 |--------------------|-------------------------------|
 |--------------------|-------------------------------|

Q S S E Q S S E Q S S E Q S S E
 
 |----2---------2-----|--------2-------------2------|
 |----2---------4-----|--------2-------------4------|
 |----3---------4-----|--------3-------------4------|
 |----4---------4-----|--------4-------------4------|
 |--------------------|-----------------------------|
 |--------------------|-----------------------------|

|
| W W
 
 |--------------------|-----------------------------|
 |--------------------|-----------------------------|
 |--------------------|-----------------------------|
 |--------------------|-----------------------------|
 |--------------------|-----------------------------|
 |--------------------|-----------------------------|

|
| Q E E E E E E +E E +Q S S E +E E
 
 |--------------------|-----------------------------|
 |----2---------------|-----------------------------|
 |--------2-4-2-4---2-|-(2)-------------------------|
 |-4------------------|-----4-(4)-----4---4-(4)-----|
 |--------------------|---------------------------6-|
 |--------------------|-----------------------------|

Q E E E E E E
 
 |------------2-------------------2-------|
 |------------2-------------------4-------|
 |------------3-------------------4-------|
 |------------4-------------------4-------|
 |--4-------------------------2-----------|
 |----------------------------------------|

|
| S S S S S S S S S S E +S S E
 
 |-21---21---21---21---23----23-(23)---24-|
 |-23---23---23---23---24----24-(24)---23-|
 |-23---23---23---23---23----23-(23)---23-|
 |----------------------------------------|
 |----------------------------------------|
 |----------------------------------------|

|
| H +Q Q
 
 |----------------------------------------|
 |----------------------------------------|
 |----------------------------------------|
 |----------------------------------------|
 |--4------------------(4)----------------|
 |----------------------------------------|

Q E E E E E E
 
 |--------------2-------------------2-------|
 |--------------2-------------------4-------|
 |--------------3-------------------4-------|
 |--------------4-------------------4-------|
 |-----------------------------2------------|
 |---2--------------------------------------|

|
| +S S S S S S S S S S S S E S S
 
 |-(24)---21---21--------23---23---23-------|
 |-(23)---23---23---19---24---24---24-------|
 |-(23)---23---23--------23---23---23--23---|
 |------------------------------------------|
 |------------------------------------------|
 |------------------------------------------|

|
| E S S E E S S E +E E
 
 |------------------------------------------|
 |------------------------------------------|
 |--------------------------------------2---|
 |---------4----4---------4----4---(4)------|
 |-------------------6----------------------|
 |------------------------------------------|

Q E E E E E E
 
 |-------------2-------------------2-------|
 |-------------2-------------------4-------|
 |-------------3-------------------4-------|
 |-------------4-------------------4-------|
 |-----------------------------2-----------|
 |--2--------------------------------------|

|
| S S S S S S S S S S E +S S E
 
 |-21----21---21----21---23---23-(23)---24-|
 |-23----23---23----23---24---24-(24)---23-|
 |-23----23---23----23---23---23-(23)---23-|
 |-----------------------------------------|
 |-----------------------------------------|
 |-----------------------------------------|

|
| +E E +H Q
 
 |-----------------------------------------|
 |-----------------------------------------|
 |-(2)-------------------------------------|
 |--------4---(4)--------------------------|
 |-----------------------------------------|
 |-----------------------------------------|

Q E E E E E E
 
 |--------------2-------------------2------|
 |--------------2-------------------4------|
 |--------------3-------------------4------|
 |--------------4-------------------4------|
 |-----------------------------2-----------|
 |---2-------------------------------------|

|
| +S S S S S S S S S S S S E S S
 
 |-(24)---21---21--------23---23---23------|
 |-(23)---23---23---19---24---24---24------|
 |-(23)---23---23--------23---23---23-23---|
 |-----------------------------------------|
 |-----------------------------------------|
 |-----------------------------------------|

|
| H Q E E
 
 |-----------------------------------------|
 |-----------------------------------------|
 |-----------------------------------------|
 |-------------------------------------4---|
 |-----------------------------------------|
 |-----------------------------------------|

Q S S E Q S S E Q S S E Q S S E
 
 |-------2---------------2-------|-------2---------------2---------|
 |-------2---------------4-------|-------2---------------4---------|
 |-------3---------------4-------|-------3---------------4---------|
 |-------4---------------4-------|-------4---------------4---------|
 |-------------------------------|---------------------------------|
 |-2-----------------------------|---------------------------------|

|
| W W
 
 |-------------------------------|---------------------------------|
 |-------------------------------|---------------------------------|
 |-------------------------------|---------------------------------|
 |-------------------------------|---------------------------------|
 |-------------------------------|---------------------------------|
 |-------------------------------|---------------------------------|

|
| S S E E E +S S S S S S S S S S E S S E +S S S S S S S S
 
 |-------------------------------|---------------------------------|
 |-4---4-2---4-(4)---------------|-4---4-2-------------------------|
 |-------------------------------|-----------2-(2)-----------------|
 |-------------------4---4---4---|-------------------4---4---4-----|
 |-------------------------------|---------------------------------|
 |-------------------------------|---------------------------------|

Q S S E Q S S E Q S S E Q S S E
 
 |-------2-----------2-----|------2--------2-----|
 |-------2-----------4-----|------2--------4-----|
 |-------3-----------4-----|------3--------4-----|
 |-------4-----------4-----|------4--------4-----|
 |-------------------------|---------------------|
 |-------------------------|---------------------|

|
| W W
 
 |-------------------------|---------------------|
 |-------------------------|---------------------|
 |-------------------------|---------------------|
 |-------------------------|---------------------|
 |-------------------------|---------------------|
 |-------------------------|---------------------|

|
| S S E S S E E S S S S E +H Q E E
 
 |-------------------------|---------------------|
 |-4---4-2---2-------------|---------------------|
 |-------------2---------2-|-(2)-----------------|
 |---------------4---4-----|-------------------4-|
 |-------------------------|---------------------|
 |-------------------------|---------------------|

H +Q. E H +Q. E
 
 |----------------|---------------------|
 |--2-----(2)-----|--4------(4)---------|
 |--1-----(1)-----|--3------(3)---------|
 |--3-----(3)-----|--4------(4)---------|
 |--4-----(4)-----|--6------(6)---------|
 |----------------|---------------------|

|
| W W
 
 |----------------|---------------------|
 |----------------|---------------------|
 |-22-------------|-20------------------|
 |-23-------------|-20------------------|
 |----------------|---------------------|
 |----------------|---------------------|

|
| Q Q H Q E E +E E +E E
 
 |----------------|---------------------|
 |-----4---2------|--4----2-(2)-4-(4)---|
 |----------------|-----3---------------|
 |--3-------------|-------------------4-|
 |----------------|---------------------|
 |----------------|---------------------|

H +Q. E E E E E E E E E
 
 |-----------------|-------------------|
 |--2-----(2)------|----4--------------|
 |--1-----(1)------|------4------6-----|
 |--3-----(3)------|--------6------8---|
 |--4-----(4)------|-----------------8-|
 |-----------------|--4--------6-------|

|
| W H H
 
 |-----------------|-------------------|
 |-18--------------|-16-------18-------|
 |-18--------------|-16-------18-------|
 |-----------------|-------------------|
 |-----------------|-------------------|
 |-----------------|-------------------|

|
| Q Q Q E E Q Q Q Q
 
 |-----------------|-------------------|
 |-----4---2-----2-|--4---2----4---2---|
 |-----------------|-------------------|
 |--3--------------|-------------------|
 |-----------------|-------------------|
 |-----------------|-------------------|

E E Q E E E E S E. +Q +H
 
 |------------------|------------------------|
 |------------------|------------------------|
 |----8-------------|-----6----(6)--(6)------|
 |------9-----------|-----6----(6)--(6)------|
 |------------------|--8---------------------|
 |--7-------7-7-7-7-|--9---------------------|

|
| W W
 
 |------------------|------------------------|
 |-16---------------|-18---------------------|
 |-16---------------|-18---------------------|
 |------------------|-18---------------------|
 |------------------|------------------------|
 |------------------|------------------------|

|
| Q E E E E E E +E E +Q +Q. E
 
 |------2---2-2-2---|------------------------|
 |--------4-------4-|-(4)----2-(2)--(2)------|
 |------------------|------------------------|
 |------------------|------------------------|
 |------------------|------------------------|
 |------------------|------------------------|

Q E E E E E E
 
 |------------2------------------2-------|
 |------------2------------------4-------|
 |------------3------------------4-------|
 |------------4------------------4-------|
 |---------------------------2-----------|
 |--2------------------------------------|

|
| S S S S S S S S S S E +S S E
 
 |-21---21---21---21---23---23-(23)---24-|
 |-23---23---23---23---24---24-(24)---23-|
 |-23---23---23---23---23---23-(23)---23-|
 |---------------------------------------|
 |---------------------------------------|
 |---------------------------------------|

|
| W
 
 |---------------------------------------|
 |---------------------------------------|
 |---------------------------------------|
 |---------------------------------------|
 |---------------------------------------|
 |---------------------------------------|

Q E E E E E E
 
 |--------------2-------------------2------|
 |--------------2-------------------4------|
 |--------------3-------------------4------|
 |--------------4-------------------4------|
 |-----------------------------2-----------|
 |---2-------------------------------------|

|
| +S S S S S S S S S S S S E S S
 
 |-(24)---21---21--------23---23---23------|
 |-(23)---23---23---19---24---24---24------|
 |-(23)---23---23--------23---23---23-23---|
 |-----------------------------------------|
 |-----------------------------------------|
 |-----------------------------------------|

|
| H Q E S S
 
 |-----------------------------------------|
 |-----------------------------------------|
 |-----------------------------------------|
 |-------------------------------------4---|
 |-----------------------------------------|
 |-----------------------------------------|

Q S S E Q S S E Q S S E Q S S E
 
 |------2---------------2--------|--------2--------------------2--------|
 |------2---------------4--------|--------2--------------------4--------|
 |------3---------------4--------|--------3--------------------4--------|
 |------4---------------4--------|--------4--------------------4--------|
 |-------------------------------|--------------------------------------|
 |--2----------------------------|--------------------------------------|

|
| Q S S S S E S S E S S Q S S S S E S S E S S
 
 |-------------------------------|--------------------------------------|
 |-------------------------------|--------------------------------------|
 |-------------------------------|--------------------------------------|
 |-------------------------------|--------------------------------------|
 |-21--21---21-----21-------21---|-21----21----21---------21-------21---|
 |-------------------------------|--------------------------------------|

|
| Q E E E E E E +E E +Q +S S E E S S
 
 |-------------------------------|--------------------------------------|
 |------2------------------------|--------------------------------------|
 |-----------2---4--2---4----2---|-(2)----------------------------------|
 |--4----------------------------|-----4-(4)--------(4)-------------4---|
 |-------------------------------|--------------------------------------|
 |-------------------------------|--------------------------------------|

Q S S E Q S S E
 
 |------2---------------2----------|
 |------2---------------4----------|
 |------3---------------4----------|
 |------4---------------4----------|
 |---------------------------------|
 |---------------------------------|

|
| Q S S S S E S S E S S
 
 |---------------------------------|
 |---------------------------------|
 |---------------------------------|
 |---------------------------------|
 |-21--21---21-----21-------21-----|
 |---------------------------------|

|
| Q E E E E E E
 
 |---------------------------------|
 |------2--------------------------|
 |-----------2---4--2---4----2-----|
 |--4------------------------------|
 |---------------------------------|
 |---------------------------------|

Q S S E Q S S E
 
 |--------2-------------------2---------|
 |--------2-------------------4---------|
 |--------3-------------------4---------|
 |--------4-------------------4---------|
 |--------------------------------------|
 |--------------------------------------|

|
| Q S S S S E S S E S S
 
 |--------------------------------------|
 |--------------------------------------|
 |--------------------------------------|
 |--------------------------------------|
 |-21----21----21-------21---------21---|
 |--------------------------------------|

|
| +E E +Q S S E +E E
 
 |--------------------------------------|
 |--------------------------------------|
 |-(2)----------------------------------|
 |-----4-(4)--------4----4---(4)--------|
 |----------------------------------6---|
 |--------------------------------------|

Q E E E E E E
 
 |------------2-------------------2-------|
 |------------2-------------------4-------|
 |------------3-------------------4-------|
 |------------4-------------------4-------|
 |--4-------------------------2-----------|
 |----------------------------------------|

|
| S S S S S S S S S S E +S S E
 
 |-21---21---21---21---23----23-(23)---24-|
 |-23---23---23---23---24----24-(24)---23-|
 |-23---23---23---23---23----23-(23)---23-|
 |----------------------------------------|
 |----------------------------------------|
 |----------------------------------------|

|
| H +Q Q
 
 |----------------------------------------|
 |----------------------------------------|
 |----------------------------------------|
 |----------------------------------------|
 |--4------------------(4)----------------|
 |----------------------------------------|

Q E E E E E E
 
 |--------------2-------------------2-------|
 |--------------2-------------------4-------|
 |--------------3-------------------4-------|
 |--------------4-------------------4-------|
 |-----------------------------2------------|
 |---2--------------------------------------|

|
| +S S S S S S S S S S S S E S S
 
 |-(24)---21---21--------23---23---23-------|
 |-(23)---23---23---19---24---24---24-------|
 |-(23)---23---23--------23---23---23--23---|
 |------------------------------------------|
 |------------------------------------------|
 |------------------------------------------|

|
| E S S E E S S E +E E
 
 |------------------------------------------|
 |------------------------------------------|
 |--------------------------------------2---|
 |---------4----4---------4----4---(4)------|
 |-------------------6----------------------|
 |------------------------------------------|

Q E E E E E E
 
 |-------------2-------------------2-------|
 |-------------2-------------------4-------|
 |-------------3-------------------4-------|
 |-------------4-------------------4-------|
 |-----------------------------2-----------|
 |--2--------------------------------------|

|
| S S S S S S S S S S E +S S E
 
 |-21----21---21----21---23---23-(23)---24-|
 |-23----23---23----23---24---24-(24)---23-|
 |-23----23---23----23---23---23-(23)---23-|
 |-----------------------------------------|
 |-----------------------------------------|
 |-----------------------------------------|

|
| +E E +H Q
 
 |-----------------------------------------|
 |-----------------------------------------|
 |-(2)-------------------------------------|
 |--------4---(4)--------------------------|
 |-----------------------------------------|
 |-----------------------------------------|

Q E E E E E E
 
 |--------------2-------------------2------|
 |--------------2-------------------4------|
 |--------------3-------------------4------|
 |--------------4-------------------4------|
 |-----------------------------2-----------|
 |---2-------------------------------------|

|
| +S S S S S S S S S S S S E S S
 
 |-(24)---21---21--------23---23---23------|
 |-(23)---23---23---19---24---24---24------|
 |-(23)---23---23--------23---23---23-23---|
 |-----------------------------------------|
 |-----------------------------------------|
 |-----------------------------------------|

|
| H Q E E
 
 |-----------------------------------------|
 |-----------------------------------------|
 |-----------------------------------------|
 |-------------------------------------4---|
 |-----------------------------------------|
 |-----------------------------------------|

Q S S E Q S S E
 
 |---------2-------------------2---------|
 |---------2-------------------4---------|
 |---------3-------------------4---------|
 |---------4-------------------4---------|
 |---------------------------------------|
 |--2------------------------------------|

|
| Q S S S S E S S E S S
 
 |---------------------------------------|
 |---------------------------------------|
 |---------------------------------------|
 |---------------------------------------|
 |-21-----21---21---------21-------21----|
 |---------------------------------------|

|
| S S E E E +S S S S S S S S
 
 |---------------------------------------|
 |--4---4--2----4---(4)------------------|
 |---------------------------------------|
 |-------------------------4---4----4----|
 |---------------------------------------|
 |---------------------------------------|

Q S S E Q S S E
 
 |---------2-------------------2--------|
 |---------2-------------------4--------|
 |---------3-------------------4--------|
 |---------4-------------------4--------|
 |--------------------------------------|
 |--------------------------------------|

|
| Q S S S S E S S E S S
 
 |--------------------------------------|
 |--------------------------------------|
 |--------------------------------------|
 |--------------------------------------|
 |-21-----21---21---------21-------21---|
 |--------------------------------------|

|
| S S E S S E +S S S S S S S S
 
 |--------------------------------------|
 |--4---4--2----------------------------|
 |--------------2---(2)-----------------|
 |-------------------------4---4----4---|
 |--------------------------------------|
 |--------------------------------------|

Q S S E Q S S E Q S S E Q S S E
 
 |---------2---------------2--------|-------2---------------2--------|
 |---------2---------------4--------|-------2---------------4--------|
 |---------3---------------4--------|-------3---------------4--------|
 |---------4---------------4--------|-------4---------------4--------|
 |----------------------------------|--------------------------------|
 |----------------------------------|--------------------------------|

|
| Q S S S S E S S E S S Q S S S S E S S E S S
 
 |----------------------------------|--------------------------------|
 |----------------------------------|--------------------------------|
 |----------------------------------|--------------------------------|
 |----------------------------------|--------------------------------|
 |-21-----21---21-----21-------21---|-21---21---21-----21-------21---|
 |----------------------------------|--------------------------------|

|
| S S E S S E E S S S S E +H Q E E
 
 |----------------------------------|--------------------------------|
 |--4---4--2----2-------------------|--------------------------------|
 |------------------2-----------2---|-(2)----------------------------|
 |---------------------4---4--------|----------------------------4---|
 |----------------------------------|--------------------------------|
 |----------------------------------|--------------------------------|

S E. +Q +H S E. +Q +H
 
 |-------------------|-------------------------|
 |----2--(2)--(2)----|----4--(4)---(4)---------|
 |----1--(1)--(1)----|----3--(3)---(3)---------|
 |--3----------------|--4----------------------|
 |--4----------------|--6----------------------|
 |-------------------|-------------------------|

|
| W W
 
 |-------------------|-------------------------|
 |-------------------|-------------------------|
 |-22----------------|-20----------------------|
 |-23----------------|-20----------------------|
 |-------------------|-------------------------|
 |-------------------|-------------------------|

|
| Q Q H Q E E +E E +E E
 
 |-------------------|-------------------------|
 |--------4----2-----|--4--------2-(2)-4-(4)---|
 |-------------------|--------3----------------|
 |--3----------------|-----------------------4-|
 |-------------------|-------------------------|
 |-------------------|-------------------------|

S E. +Q +H E E E E E E E E
 
 |---------------------|-------------------|
 |----2--(2)--(2)------|----4--------------|
 |----1--(1)--(1)------|------4------6-----|
 |--3------------------|--------6------8---|
 |--4------------------|-----------------8-|
 |---------------------|--4--------6-------|

|
| W H H
 
 |---------------------|-------------------|
 |-18------------------|-16-------18-------|
 |-18------------------|-16-------18-------|
 |---------------------|-------------------|
 |---------------------|-------------------|
 |---------------------|-------------------|

|
| Q Q Q E E Q Q Q Q
 
 |---------------------|-------------------|
 |--------4----2-----2-|--4---2----4---2---|
 |---------------------|-------------------|
 |--3------------------|-------------------|
 |---------------------|-------------------|
 |---------------------|-------------------|

E E Q E E E E S S E +Q +H
 
 |------------------|--------------------------|
 |------------------|--------------------------|
 |----8-------------|--------------------------|
 |------9-----------|--------11-(11)--(11)-----|
 |------------------|-----11-------------------|
 |--7-------7-7-7-7-|--9--13-------------------|

|
| W W
 
 |------------------|--------------------------|
 |-16---------------|-18-----------------------|
 |-16---------------|-18-----------------------|
 |------------------|-18-----------------------|
 |------------------|--------------------------|
 |------------------|--------------------------|

|
| Q E E E E E E +E E +Q +Q. E
 
 |------2---2-2-2---|--------------------------|
 |--------4-------4-|-(4)-----2--(2)---(2)-----|
 |------------------|--------------------------|
 |------------------|--------------------------|
 |------------------|--------------------------|
 |------------------|--------------------------|

[E] [E] [E] [E] [E] [E] [E] [E] [E] [E] [E] [E] [E] [E] [E] [E]  
 
 |----------------------|------------------|
 |---2--2-2-2-2-2-2-2---|------5-----4-----|
 |---1--1-1-1-1-1-1-1---|----3---3-----4---|
 |---3--3-3-3-3-3-3-3---|----------------4-|
 |---4--4-4-4-4-4-4-4---|----------2-------|
 |----------------------|--2---------------|

|
| +W W
 
 |----------------------|------------------|
 |-(18)-----------------|-19---------------|
 |-(18)-----------------|------------------|
 |-(18)-----------------|------------------|
 |----------------------|------------------|
 |----------------------|------------------|

|
| H Q E S S Q E E E E E E
 
 |----------------------|------------------|
 |----------------------|------2-----------|
 |----------------------|--------2-4-2-4-2-|
 |------------------4---|--4---------------|
 |----------------------|------------------|
 |----------------------|------------------|

[E] [E] [E] [E] [E] [E] [E] [E] [E] [E] [E] [E] [E] [E] [E] [E]  
 
 |------------------------------|--------------------|
 |------------------4-----------|--------5-----4-----|
 |---------3-----------4--------|------3---3-----4---|
 |------------4-------------4---|------------------4-|
 |------4--------2--------------|------------2-------|
 |---2--------------------------|---2----------------|

|
| +W +W
 
 |------------------------------|--------------------|
 |-(19)-------------------------|-(19)---------------|
 |------------------------------|--------------------|
 |------------------------------|--------------------|
 |------------------------------|--------------------|
 |------------------------------|--------------------|

|
| +E E +Q +Q +S S S S Q E E E E E E
 
 |------------------------------|--------------------|
 |------------------------------|--------2-----------|
 |--(2)-------------------------|----------2-4-2-4-2-|
 |------4-(4)---(4)---(4)---4---|---4----------------|
 |------------------------------|--------------------|
 |------------------------------|--------------------|

E E E E E E E E Q E E E E E E
 
 |--------------------------|------2----------2------|
 |--------------------4-----|------2----------4------|
 |---------3------------4---|------3----------4------|
 |------------4-----------4-|------4----------4------|
 |------4----------2--------|--4-----------2---------|
 |---2----------------------|--2---------------------|

|
| +W W
 
 |--------------------------|------------------------|
 |-(19)---------------------|-19---------------------|
 |--------------------------|------------------------|
 |--------------------------|------------------------|
 |--------------------------|------------------------|
 |--------------------------|------------------------|

|
| +E E +E. S +H +H +Q +S S E
 
 |--------------2-(2)-------|-(2)------(2)---(2)-----|
 |--------------------------|------------------------|
 |--(2)---------------------|------------------------|
 |------4-(4)---------------|------------------------|
 |--------------------------|------------------------|
 |--------------------------|------------------------|

Q E E E E E E
 
 |-------------2---------------2---|
 |-------------2---------------4---|
 |-------------3---------------4---|
 |-------------4---------------4---|
 |-----------------------2---------|
 |---2-----------------------------|

|
| +E S S Q +E S S Q
 
 |---------------------------------|
 |-(19)-17----17---(17)-------14---|
 |------20-18-----------18-16------|
 |---------------------------------|
 |---------------------------------|
 |---------------------------------|

Q E E E E E E Q E E E E E E
 
 |-------------2----------2-------|---------2---------2---|
 |-------------2----------4-------|---------2---------4---|
 |-------------3----------4-------|---------3---------4---|
 |-------------4----------4-------|---------4---------4---|
 |----------------------2---------|-----------------2-----|
 |---2----------------------------|-2---------------------|

|
| +E S S Q +Q. S S S S S S S S E H
 
 |--------------------------------|-----5-----------------|
 |-(14)-12-10-12---(12)-----10----|---7-----7-------------|
 |------15---------------------11-|-9---------------------|
 |--------------------------------|-----------------------|
 |--------------------------------|-----------------------|
 |--------------------------------|-----------------------|

Q E E E E E E Q E E E E E E
 
 |---------2--------------2----|--------2----------2---|
 |---------2--------------4----|--------2----------4---|
 |---------3--------------4----|--------3----------4---|
 |---------4--------------4----|--------4----------4---|
 |---------------------2-------|-----------------2-----|
 |-2---------------------------|---2-------------------|

|
| S S S S S S S S Q E E +Q Q +H
 
 |-----5-7-9---12---14---17----|-----------------------|
 |---7----------------------19-|-(19)--17---(17)-------|
 |-----------------------------|-----------------------|
 |-----------------------------|-----------------------|
 |-----------------------------|-----------------------|
 |-----------------------------|-----------------------|

Q E E E E E E
 
 |-------------2-------------------2----|
 |-------------2-------------------4----|
 |-------------3-------------------4----|
 |-------------4-------------------4----|
 |-----------------------------2--------|
 |--2-----------------------------------|

|
| S S S S S S S S S S S S Q
 
 |--------------------------------------|
 |-19---------14---12-10-12-10-----7----|
 |----17-16--------------------9--------|
 |--------------------------------------|
 |--------------------------------------|
 |--------------------------------------|

Q E E E E E E
 
 |---------2---------------2-------|
 |---------2---------------4-------|
 |---------3---------------4-------|
 |---------4---------------4-------|
 |---------------------2-----------|
 |--2------------------------------|

|
| +E S S S S S S S S S S S S S S
 
 |-----5---5---5---5---5---5---5---|
 |-(7)---7---7---7---7---7---7---7-|
 |---------------------------------|
 |---------------------------------|
 |---------------------------------|
 |---------------------------------|

|
| Gtr IV
| H Q E E
 
 |---------------------------------|
 |---------------------------------|
 |---------------------------------|
 |-----------------------------4---|
 |---------------------------------|
 |---------------------------------|

Q S S E Q S S E Q S S E Q S S E
 
 |-------2---------------2-------|-------2---------------2---------|
 |-------2---------------4-------|-------2---------------4---------|
 |-------3---------------4-------|-------3---------------4---------|
 |-------4---------------4-------|-------4---------------4---------|
 |-------------------------------|---------------------------------|
 |-2-----------------------------|---------------------------------|

|
| W W
 
 |-------------------------------|---------------------------------|
 |-------------------------------|---------------------------------|
 |-------------------------------|---------------------------------|
 |-------------------------------|---------------------------------|
 |-------------------------------|---------------------------------|
 |-------------------------------|---------------------------------|

|
| S S E E E +S S S S S S S S S S E S S E +S S S S S S S S
 
 |-------------------------------|---------------------------------|
 |-4---4-2---4-(4)---------------|-4---4-2-------------------------|
 |-------------------------------|-----------2-(2)-----------------|
 |-------------------4---4---4---|-------------------4---4---4-----|
 |-------------------------------|---------------------------------|
 |-------------------------------|---------------------------------|

Q S S E Q S S E Q S S E Q S S E
 
 |-------2-----------2-----|------2--------2-----|
 |-------2-----------4-----|------2--------4-----|
 |-------3-----------4-----|------3--------4-----|
 |-------4-----------4-----|------4--------4-----|
 |-------------------------|---------------------|
 |-------------------------|---------------------|

|
| W W
 
 |-------------------------|---------------------|
 |-------------------------|---------------------|
 |-------------------------|---------------------|
 |-------------------------|---------------------|
 |-------------------------|---------------------|
 |-------------------------|---------------------|

|
| S S E S S E E S S S S E +H Q E E
 
 |-------------------------|---------------------|
 |-4---4-2---2-------------|---------------------|
 |-------------2---------2-|-(2)-----------------|
 |---------------4---4-----|-------------------4-|
 |-------------------------|---------------------|
 |-------------------------|---------------------|

S E. +Q +H S E. +Q +H
 
 |-------------------|-------------------------|
 |----2--(2)--(2)----|----4--(4)---(4)---------|
 |----1--(1)--(1)----|----3--(3)---(3)---------|
 |--3----------------|--4----------------------|
 |--4----------------|--6----------------------|
 |-------------------|-------------------------|

|
| W W
 
 |-------------------|-------------------------|
 |-18----------------|-------------------------|
 |-18----------------|-20----------------------|
 |-------------------|-20----------------------|
 |-------------------|-------------------------|
 |-------------------|-------------------------|

|
| Q Q H Q E E +E E +E E
 
 |-------------------|-------------------------|
 |--------4----2-----|--4--------2-(2)-4-(4)---|
 |-------------------|--------3----------------|
 |--3----------------|-----------------------4-|
 |-------------------|-------------------------|
 |-------------------|-------------------------|

S E. +Q +H E E E E E E E E
 
 |---------------------|-------------------|
 |----2--(2)--(2)------|----4--------------|
 |----1--(1)--(1)------|------4------6-----|
 |--3------------------|--------6------8---|
 |--4------------------|-----------------8-|
 |---------------------|--4--------6-------|

|
| W H H
 
 |---------------------|-------------------|
 |-18------------------|-16-------18-------|
 |-18------------------|-16-------18-------|
 |---------------------|-------------------|
 |---------------------|-------------------|
 |---------------------|-------------------|

|
| Q Q Q E E Q Q Q Q
 
 |---------------------|-------------------|
 |--------4----2-----2-|--4---2----4---2---|
 |---------------------|-------------------|
 |--3------------------|-------------------|
 |---------------------|-------------------|
 |---------------------|-------------------|

E E Q E E E E S S E +Q +H
 
 |------------------|---------------------------|
 |------------------|---------------------------|
 |----8-------------|---------------------------|
 |------9-----------|--------11-(11)--(11)------|
 |------------------|-----11--------------------|
 |--7-------7-7-7-7-|--9--13--------------------|

|
| W W
 
 |------------------|---------------------------|
 |-16---------------|-18------------------------|
 |-16---------------|-18------------------------|
 |------------------|-18------------------------|
 |------------------|---------------------------|
 |------------------|---------------------------|

|
| Q E E E E E E +E E +Q +Q. E
 
 |------2---2-2-2---|---------------------------|
 |--------4-------4-|-(4)-----2--(2)---(2)------|
 |------------------|---------------------------|
 |------------------|---------------------------|
 |------------------|---------------------------|
 |------------------|---------------------------|

E E E E E E E E Q S S E Q S S E
 
 |----------------------|------2---------------2--------|
 |---2--2-2-2-2-2-2-2---|------2---------------4--------|
 |---1--1-1-1-1-1-1-1---|------3---------------4--------|
 |---3--3-3-3-3-3-3-3---|------4---------------4--------|
 |---4--4-4-4-4-4-4-4---|-------------------------------|
 |----------------------|--2----------------------------|

|
| +W Q E S S E S S E S S
 
 |----------------------|-----21------------------------|
 |-(18)-----------------|-19-------19-----19-------19---|
 |-(18)-----------------|-------------------------------|
 |-(18)-----------------|-------------------------------|
 |----------------------|-------------------------------|
 |----------------------|-------------------------------|

|
| H Q E S S Q E E E E E E
 
 |----------------------|-------------------------------|
 |----------------------|------2------------------------|
 |----------------------|-----------2---4--2---4----2---|
 |------------------4---|--4----------------------------|
 |----------------------|-------------------------------|
 |----------------------|-------------------------------|

Q S S E Q S S E
 
 |--------2------------------2--------|
 |--------2------------------4--------|
 |--------3------------------4--------|
 |--------4------------------4--------|
 |------------------------------------|
 |------------------------------------|

|
| Q E S S E S S E S S
 
 |-------21---------------------------|
 |-19----------19-------19-------19---|
 |------------------------------------|
 |------------------------------------|
 |------------------------------------|
 |------------------------------------|

|
| +E E +Q +E E E S S
 
 |------------------------------------|
 |------------------------------------|
 |-(2)--------------------------------|
 |-----4-(4)--------(4)-----------4---|
 |------------------------------------|
 |------------------------------------|

Q S S E Q S S E
 
 |------2---------------2--------|
 |------2---------------4--------|
 |------3---------------4--------|
 |------4---------------4--------|
 |-------------------------------|
 |-------------------------------|

|
| Q E S S E S S E S S
 
 |-----21------------------------|
 |-19-------19-----19-------19---|
 |-------------------------------|
 |-------------------------------|
 |-------------------------------|
 |-------------------------------|

<br /

Important: The song above is NOT stored on the Chordie server. The original song is hosted at www.guitaretab.com. Chordie works as a search engine and provides on-the-fly formatting. Chordie does not index songs against artists'/composers' will. To remove this song please click here.

Text color:
Chord color:
Chord grids: 
Font size:    
Page size: 

E
Rate #2 of 2 versions

Login - add to songbook

SHARE PAGE  



You need to log in to post comments