Guitar Tabs, Chords and Lyrics
Major upgrade!! After one year development the new version of Chordie is now online! Please give feedback.


Out of Sight  Smash Mouth

[D/B] [Am] [Em]  
 
 e|----0--------0-------0---------------------------------------------|
 B|----3--------1-------0---------------------------------------------|
 G|----2--------2-------0---------------------------------------------|
 D|----0--------2-------2---------------------------------------------|
 A|----2--------0-------2---------------------------------------------|
 E|---------------------0---------------------------------------------|

1st verse: (picking)
(use these chords, but pick the notes)
[D/B] [D/B] [Am] [Em]  
 
 e|-------0----------------0-----------------0----------------------|
 B|-----3---3------------3---3-------------1---1-------------0------|
 G|---2-------2--------2-------2---------2-------2---------0---0----|
 D|-0----------------------------------------------------2-------2--|
 A|------------------2-----------------0----------------------------|
 E|----------------------------------------------------0------------|

Paintings pool cigarettes drool well
 
 e|-------0----------------0-----------------0----------------------|
 B|-----3---3------------3---3-------------1---1-------------0------|
 G|---2-------2--------2-------2---------2-------2---------0---0----|
 D|-0----------------------------------------------------2-------2--|
 A|------------------2-----------------0----------------------------|
 E|----------------------------------------------------0------------|

we dumb just numb and
 
 e|-------0----------------0-----------------0----------------------|
 B|-----3---3------------3---3-------------1---1-------------0------|
 G|---2-------2--------2-------2---------2-------2---------0---0----|
 D|-0----------------------------------------------------2-------2--|
 A|------------------2-----------------0----------------------------|
 E|----------------------------------------------------0------------|

tomorrow's year happened here we've
 
 e|-------0----------------0-----------------0----------------------|
 B|-----3---3------------3---3-------------1---1-------------0------|
 G|---2-------2--------2-------2---------2-------2---------0---0----|
 D|-0----------------------------------------------------2-------2--|
 A|------------------2-----------------0----------------------------|
 E|----------------------------------------------------0------------|

been big rubber thumb ..........
1st chorus: (picking)
 
 e|----------------------------3----------------------------------|
 B|---------------3----0------0-0-----0-----0---------------------|
 G|---------0----2----0-0----0---0------2----2--------------------|
 D|-------0----------2---2-------------1------1-------------------|
 A|---------------------------------------------------------------|
 E|--2-3--------2--0--------2-------------------------------------|

and star now.... bright
 
 e|----------------------------3----------------0-----0------------|
 B|---------------3----0------0-0-----------0----0----0------------|
 G|---------0----2----0-0----0---0---------3-3----3---3------------|
 D|-------0----------2---2----------------4---4-------4------------|
 A|---------------------------------------------------X------------|
 E|--2-3--------2--0--------2-----------2-------------2------------|

and drive fast now.... outta sight
Verse 2 (strumming)
The[D] tickertape wants us to fail[D/B]...
And the l[Am]imosuine just drives us to [Em]jail...
And the [D]conceirge can't te[D/B]ll us where,
The l[Am]adies dance.[Em]
But [D]you are my friend in miles,[D/B]
Radio wa[Am]ves, stations and di[Em]les and smiles.[D]
Cities and t[D/B]owns....
[Am]Slow down.[Em]
Chorus 2: (strumming)
(alternate the strum direction)
 
 e|-----0-0-0-0--0-0-0-0--0-0-0-0--3-3-3-3--0-0-0-0-------------------|
 B|-----0-0-0-0--3-3-3-3--0-0-0-0--0-0-0-0--0-0-0-0-------------------|
 G|-----0-0-0-0--2-2-2-2--0-0-0-0--0-0-0-0--2-2-2-2-------------------|
 D|-----0-0-0-0--0-0-0-0--2-2-2-2--0-0-0-0--1-1-1-1-------------------|
 A|-----0-0-0-0--0-0-0-0--2-2-2-2--0-0-0-0--0-0-0-0-------------------|
 E|---2-3-3-3-3--2-2-2-2--0-0-0-0--2-2-2-2--x-x-x-x-------------------|

And you're a star now . . . blinkin bright
 
 e|-----0-0-0-0--0-0-0-0--0-0-0-0--3-3-3-3--0-0-0-0-------------------|
 B|-----0-0-0-0--3-3-3-3--0-0-0-0--0-0-0-0--0-0-0-0-------------------|
 G|-----0-0-0-0--2-2-2-2--0-0-0-0--0-0-0-0--2-2-2-2-------------------|
 D|-----0-0-0-0--0-0-0-0--2-2-2-2--0-0-0-0--1-1-1-1-------------------|
 A|-----0-0-0-0--0-0-0-0--2-2-2-2--0-0-0-0--0-0-0-0-------------------|
 E|-----3-3-3-3--2-2-2-2--0-0-0-0--2-2-2-2--x-x-x-x-------------------|

And you drive so fast now . . . outta sight
 
 e|-----0-0-0-0--0-0-0-0--0-0-0-0--3-3-3-3--0-0-0-0-------------------|
 B|-----0-0-0-0--3-3-3-3--0-0-0-0--0-0-0-0--0-0-0-0-------------------|
 G|-----0-0-0-0--2-2-2-2--0-0-0-0--0-0-0-0--2-2-2-2-------------------|
 D|-----0-0-0-0--0-0-0-0--2-2-2-2--0-0-0-0--1-1-1-1-------------------|
 A|-----0-0-0-0--0-0-0-0--2-2-2-2--0-0-0-0--0-0-0-0-------------------|
 E|-----3-3-3-3--2-2-2-2--0-0-0-0--2-2-2-2--x-x-x-x-------------------|

outta sight outta siiiight..
SOLO: (this is done on a harmonica in the song, but it sounds just as good on guitar)
[D] [D/B] [Am] [Em]  
 
 e|----9-12---10--------------------------------------------------------|
 B|-11----------10~-----10-12-13---12---10---8--10---7------------------|
 G|----------------------------------------------------7----------------|
 D|---------------------------------------------------------------------|
 A|---------------------------------------------------------------------|
 E|---------------------------------------------------------------------|

[D] [D/B] [Am] [Em]  
 
 e|----------------------------10---------------------14-15-14--12------|
 B|-10-12-13--12---10--12---10----10--------------15--------------------|
 G|--------------------------------------------14-----------------------|
 D|---------------------------------------------------------------------|
 A|---------------------------------------------------------------------|
 E|---------------------------------------------------------------------|

[D] [D/B] [Am] [Em]  
 
 e|--10-12-14-------------------------------17-15-14-12-10--------------|
 B|--------------------------------------------------------10-----------|
 G|---------------------------------------------------------------------|
 D|---------------------------------------------------------------------|
 A|---------------------------------------------------------------------|
 E|---------------------------------------------------------------------|

("ohhhhh ohhhhhhh.....")
Chorus 3:
(alternate the strum direction)
 
 e|-----0-0-0-0--0-0-0-0--0-0-0-0--3-3-3-3--0-0-0-0-------------------|
 B|-----0-0-0-0--3-3-3-3--0-0-0-0--0-0-0-0--0-0-0-0-------------------|
 G|-----0-0-0-0--2-2-2-2--0-0-0-0--0-0-0-0--2-2-2-2-------------------|
 D|-----0-0-0-0--0-0-0-0--2-2-2-2--0-0-0-0--1-1-1-1-------------------|
 A|-----0-0-0-0--0-0-0-0--2-2-2-2--0-0-0-0--0-0-0-0-------------------|
 E|---2-3-3-3-3--2-2-2-2--0-0-0-0--2-2-2-2--x-x-x-x-------------------|

And you're a star now . . . blinkin bright
 
 e|-----0-0-0-0--0-0-0-0--0-0-0-0--3-3-3-3--0-0-0-0-------------------|
 B|-----0-0-0-0--3-3-3-3--0-0-0-0--0-0-0-0--0-0-0-0-------------------|
 G|-----0-0-0-0--2-2-2-2--0-0-0-0--0-0-0-0--2-2-2-2-------------------|
 D|-----0-0-0-0--0-0-0-0--2-2-2-2--0-0-0-0--1-1-1-1-------------------|
 A|-----0-0-0-0--0-0-0-0--2-2-2-2--0-0-0-0--0-0-0-0-------------------|
 E|-----3-3-3-3--2-2-2-2--0-0-0-0--2-2-2-2--x-x-x-x-------------------|

And you drive so fast now . . . outta sight
 
 e|-----0-0-0-0--0-0-0-0--0-0-0-0--3-3-3-3--0-0-0-0-------------------|
 B|-----0-0-0-0--3-3-3-3--0-0-0-0--0-0-0-0--0-0-0-0-------------------|
 G|-----0-0-0-0--2-2-2-2--0-0-0-0--0-0-0-0--2-2-2-2-------------------|
 D|-----0-0-0-0--0-0-0-0--2-2-2-2--0-0-0-0--1-1-1-1-------------------|
 A|-----0-0-0-0--0-0-0-0--2-2-2-2--0-0-0-0--0-0-0-0-------------------|
 E|-----3-3-3-3--2-2-2-2--0-0-0-0--2-2-2-2--x-x-x-x-------------------|

Outta Sight... Ouuuuutta siiiight...
Outro:
[D/B] [D/B] [Am] [Em]  
 
 e|----0-------------0---------------0-----------------------------------------|
 B|---3-3-----------3-3-------------1-1--------0-------------------------------|
 G|--2---2---------2---2-----------2---2------0-0------------------------------|
 D|-0----------------------------------------2---2-----------------------------|
 A|---------------2--------------0---------------------------------------------|
 E|----------------------------------------0-----------------------------------|

Ouuuuuuuuuuuuuutta sight....
[D/B] [D/B] [Am] [Em] [D]  
 
 e|----0-------------0---------------0----------------------2------------------|
 B|---3-3-----------3-3-------------1-1--------0------------3------------------|
 G|--2---2---------2---2-----------2---2------0-0-----------2------------------|
 D|-0----------------------------------------2---2----------0------------------|
 A|---------------2--------------0---------------------------------------------|
 E|----------------------------------------0-----------------------------------|

Ouuuuuuuuuuuuuuuutta sight....

Important: The song above is NOT stored on the Chordie server. The original song is hosted at www.guitaretab.com. Chordie works as a search engine and provides on-the-fly formatting. Chordie does not index songs against artists'/composers' will. To remove this song please click here.

Text color:
Chord color:
Chord grids: 
Font size:    
Page size: 

Am D D/B Em
Rate #1 of 2 versions

Jango Player

Login - add to songbook

SHARE PAGE  




You need to log in to post comments