Guitar Tabs, Chords and Lyrics
Major upgrade!! After one year development the new version of Chordie is now online! Please give feedback.


Padrino  Smash Mouth

Song:Padrino(Translation, Godfather)
Band: Smash Mouth
Tabbed by: Jesse Gardner(last verse by Luke Knox)
"=tremolo pick(1 beat)
x=deadened string
=Pull off
Intro pt one:
3/4 Time
 
 ------------|------|-------|--------|-------|
 ------------|------|-4-3-1-|-0"""---|-3-"""-|
 -0""""""""""|-5-"""|-------|-0----0-|-0-----|
 -0----------|-5----|-------|-0------|-0-----|
 -x----------|-3----|-------|-x------|-x-----|
 -3----------|------|-------|-3------|-3-----|

You should have the timing now
 
 -1-----|--------|-----|------------------
 ---4-3 |-4"""---|-5"""|-8-6-5-6----------
 -------|-5----0-|-----|-------5----------
 -------|-5------|-----|---------5-6------
 -------|-3------|-----|---------3-4------
 -------|--------|-----|------------------
 ------4-3-1--3""""""""-------
 -6"""--------3---------------
 -5-----------4---------------
 -6-----------5---------------
 -5-----------5---------------
 -------------3---------------

Intro Pt 2(x2): 1st time only
 
 -1""""-4-3-1--1"""""--4-3-1-----------|4-3-1--------------|
 -1------------1--------------6"""""""-|------4-3-1-3-4-1--|
 -3------------1--------------6--------|-------------------|
 -3------------1--------------6--------|-------------------|
 -1---------------------------4--------|-------------------|
 -1------------------------------------|-------------------|

Second Time extremely fast
 
 ----4-3-1-3~~|3>44>3----------6-666----------------
 -------------|--------------5-5555-------5-4-44--5-7--5-
 -------------|------------------------------------------
 -------------|------------------------------------------
 -------------|------------------------------------------
 --------------------------
 --------------------------
 --------------------------
 -5-6-66-8-5---3---1---0---
 ------------6---5---3---2-
 --------------------------

Bridge
Gtr. 1
Cm played ska
Gtr. 2
 
 ---------------------
 ---------------------
 ---------------------
 ---------------------
 -3---3---3----3------
 ---3---3----3---3----

Verse(Ska)
 
 -3333-3333--3333-3333----
 -4444-5555--3333-4444----
 -5555-7777--4444-5555----
 -5555-7777--5555-5555----
 ------------5555---------
 ------------------------- 

Chorus
 
 --8--10-10----1----------1-3-3--343-----
 --8--10-12--4---4-3-1-0--1-3-4------643-
 --10-12-12---------------1-3-5----------
 --10-12------------------3-5-5----------
 --8--10------------------3-5-3----------
 -------------------------1-3------------

I'm a conniesure...
 
 E--------------------------------------
 B--------------------------------------
 G--------------------------------0-----
 D---1-------0--------0-0-1-1-3-3-------
 A-3---2-2-3---3--3-3-------------------
 E-----------------------------------3--

Barre chords: C - A# - G# - G - Cm(ska)
Solo:
 
 E---------------------------------------------------------
 B---------------------------------------------------------
 G---------------------------------------------------------
 D---------1-0-------------0-0-0-0-3-1-0-1-1-1-1---2-2-2-2-
 A-3-3-3-3-----3-2-2-2-2-----------------------------------
 E-----------------------3------------------------3--------
 E-------------------------------------
 B-------------------------------------
 G-0-------0-1--0----------------------
 D---3-2-3--------1-3-0-1---0----------
 A------------------------3---2-3---3--
 E--------------------------------3----

Last Verse(Stay out of the papers)
[Fm] [-] [G#m] [-] [Bm] [-] [Cm] [G] [Cm] [G] [Cm] 

Important: The song above is NOT stored on the Chordie server. The original song is hosted at www.guitaretab.com. Chordie works as a search engine and provides on-the-fly formatting. Chordie does not index songs against artists'/composers' will. To remove this song please click here.

Text color:
Chord color:
Chord grids: 
Font size:    
Page size: 

Bm Cm Fm G G#m
Rate #2 of 5 versions

Jango Player

Login - add to songbook

SHARE PAGE  



You need to log in to post comments