Guitar Tabs, Chords and Lyrics
Major upgrade!! After one year development the new version of Chordie is now online! Please give feedback.


Love  The Smashing Pumpkins

Love by Smashing Pumpkins
4/4 time. Distortion and a slow, deep, phaser. All chords are 5 chords (power
chords). Slow eighth note strum.
[G#5]To my mistakes, to my mist[B5]akes of [E5]cowardice
[G#]She shimmy shakes, the jimmy [B]jakes of [E]consequence
[G#]born of the airs and dues, my airs of [B]madness [E]do declare
[G#]That it's o.k,[B] it's [E]love
[E]It's what you wanted to see, it's who you wanted to[F#] be
[F#]For what you needed to need, she'll make it up
[G#]Lov[B]e, [C#]love, it's [E]who you know
[G#]Lov[B]e, [C#]love, it's [E]who you know
[B]Lov[C#]e, [E]love, it's [F#]who you know
[G#]Lov[B]e, [C#]love, it's [E]who you know
[G#]Machine gun blues, her vacant [B]rush [E]so steel
[G#]I'm unaware, lost ins[B]ide your [E]visions
[G#]I got mine too over, i got mine [B]and i g[E]ot you
[G#]Cause i know you, [B] you're l[E]ove
[E]It's want you wanted to see, it's who you wanted to[F#] be
[F#]For what you needed to need, she'll make it up
[G#]Lov[B]e, [C#]love, it's [E]who you know
[G#]Lov[B]e, [C#]love, it's [E]who you know
[B]Lov[C#]e, [E]love, it's [F#]who you know
[G#]Lov[B]e, [C#]love, it's [E]who you know
[E]When i lost my mind, i knew i was in for a long ride
Solo: (chords G# B C# E)
(play over first 4 measures of G# B C# E)
 
 |---------| (x4)

|-4p2-4p2-|
 
 |---------|
 |---------|
 |---------|
 |---------|

[G#] [B] [C#] [E]  
 
 |-------|--------|-------|-----|
 |4p2-4^-|-7p4-7^-|9p7-9^-|-12^-|
 |-------|--------|-------|-----|
 |-------|--------|-------|-----|
 |-------|--------|-------|-----|
 |-------|--------|-------|-----|

[G#] [B] [C#] [E]  
 
 |11p-9----|---------|---------|-19^-16-|
 |------12-|-9h12-12-|16p14-16-|--------|
 |---------|---------|---------|--------|
 |---------|---------|---------|--------|
 |---------|---------|---------|--------|
 |---------|---------|---------|--------|

G# B C# E (lyrics start here)
 
 |11p-9------|---------|---------|-21^-19-|
 |------12-12|-9h12-12-|9h12-----|--------|
 |-----------|---------|---------|--------|
 |-----------|---------|---------|--------|
 |-----------|---------|---------|--------|
 |-----------|---------|---------|--------|

[E]Can i look up to you as you look down on me[F#]
Can i feel in to you as you felt in to me[E]
I can't help what you see, i can't help but to[F#] be
For what i needed to need, she'll make it up
[G#]Lov[B]e, [C#]love, it's [E]who you know
[G#]Lov[B]e, [C#]love, it's [E]who you know
[B]Lov[C#]e, [E]love, it's [F#]who you know
[G#]Lov[B]e, [C#]love, it's [E]who you know
G# (gradually slow the tempo for 3 measures)
[G#]Love solves every[B]thing[E], Lo[G#]ve

Important: The song above is NOT stored on the Chordie server. The original song is hosted at www.guitaretab.com. Chordie works as a search engine and provides on-the-fly formatting. Chordie does not index songs against artists'/composers' will. To remove this song please click here.

Text color:
Chord color:
Chord grids: 
Font size:    
Page size: 

B B5 C# E E5 F# G# G#5
Rate #1 of 10 versions

Jango Player

Login - add to songbook

SHARE PAGE  




You need to log in to post comments