Guitar Tabs, Chords and Lyrics
Server problems seems to be fixed. Chordie has been experiencing problems with songs disappearing. These issues now seems to be fixed, but still verifying the fix. If you find anything strange, please email admin@chordie.com.


Porcelina of the Vast Oceans  The Smashing Pumpkins

Song: Porcelina Of The Vast Oceans
Band: Smashing Pumpkins
Album: Mellon Collie and the Infinite Sadness
Year Released: 1995
Eb Tuning
Drop C#
Intro
 
 Eb|----------------------------------|
 Ab|--------------0-------------------|
 Db|--------6-------6-----6-----------| (x2)
 Gb|-----7-----7-------7--------------|
 Bb|--0-------------------------------|
 Db|----------------------------------|
 Eb|----------------------------------|
 Ab|-----------------0----------------|
 Db|---------12---------12------12----| (x2)
 Gb|-----10------10---------10--------|
 Bb|--0-------------------------------|
 Db|----------------------------------|

This repeats throughout the intro
 
 |---------------------------------------------0----|
 |------------------------------------------0-------|
 |-------9---\4----6--------------------------------|
 |--11------------------7--9b11b9--7---/10----------|
 |--------------------------------------------------|
 |--------------------------------------------------|

Chorus
 
 |--------------------------------------------------------------------|
 |--------------------------------------------------------------------|
 |--11\--7----14\--7----9\--7----11\--7--7/9--9--7\-------------------|
 |--------------------------------------------------------------------|
 |---9\--5----12\--5----7\--5-----9\--5--5/7--7--5\-------------------|
 |-------0---------0--------0---------0-------------------------------|
 |--------------------------------------------------------------------|
 |--------------------------------------------------------------------|
 |--------------------------------------------------------------------|
 |--7-----7------7--7--7/10-----10------10------10--10--10------------|
 |--7-----7------7--7--7/10-----10------10------10--10--10------------|
 |--7-----7------7--7--7/10-----10------10------10--10--10------------|
 |--------------------------------------------------------------------|
 |--------------------------------------------------------------------|
 |--11-11\--7----14-14\--7----9-9\--7----11-11\--7--7/9--9--7\--------|
 |--------------------------------------------------------------------|
 |---9--9\--5----12-12\--5----7-7\--5-----9--9\--5--5/7--7--5\--------|
 |----------0------------0----------0------------0--------------------|
 |--------------------------------------------------------------------|
 |--------------------------------------------------------------------|
 |--------------------------------------------------------------------| (x2)
 |--7-----7------7--7--7/10-----10------10------10--10--10------------|
 |--7-----7------7--7--7/10-----10------10------10--10--10------------|
 |--7-----7------7--7--7/10-----10------10------10--10--10------------|
 |--------------------------------------------------------------------|
 |--------------------------------------------------------------------|
 |--------------------------------------------------------------------|
 |----5--5------5--5------5--5------5--5------5--5--5-----------------|
 |----5--5------5--5------5--5------5--5------5--5--5-----------------|
 |----5--5------5--5------5--5------5--5------5--5--5-----------------|

Verse
[D] [A] [C] [G] 
[D] [A] 
As far as you take me, that's where I believe
[C] [G] 
The realm of soft delusions, floating on the leaves
[D] [A] 
On a distant shoreline, she waves her arms to me
[C] [G] 
As all the thought police, are closing in for sleep
[D] [A] 
The dilly dally, of my bright lit stay
[C] 
The steam of my misfortunes
[G] [D] 
Has given me the power to be afraid
[C] [G] 
And in my mind I'm everyone
[D] [C] 
And in my mind
Chorus
 
 |--------------------------------------------------------------------|
 |--------------------------------------------------------------------|
 |--11\--7----14\--7----9\--7----11\--7--7/9--9--7\-------------------|
 |--------------------------------------------------------------------|
 |---9\--5----12\--5----7\--5-----9\--5--5/7--7--5\-------------------|
 |-------0---------0--------0---------0-------------------------------|
 |--------------------------------------------------------------------|
 |--------------------------------------------------------------------|
 |--------------------------------------------------------------------|
 |--7-----7------7--7--7/10-----10------10------10--10--10------------|
 |--7-----7------7--7--7/10-----10------10------10--10--10------------|
 |--7-----7------7--7--7/10-----10------10------10--10--10------------|

Without a ca-re in this who-le world
 
 |--------------------------------------------------------------------|
 |--------------------------------------------------------------------|
 |--11-11\--7----14-14\--7----9-9\--7----11-11\--7--7/9--9--7\--------|
 |--------------------------------------------------------------------|
 |---9--9\--5----12-12\--5----7-7\--5-----9--9\--5--5/7--7--5\--------|
 |----------0------------0----------0------------0--------------------|
 |--------------------------------------------------------------------|
 |--------------------------------------------------------------------|
 |--------------------------------------------------------------------|
 |--7-----7------7--7--7/10-----10------10------10--10--10------------|
 |--7-----7------7--7--7/10-----10------10------10--10--10------------|
 |--7-----7------7--7--7/10-----10------10------10--10--10------------|

Without a ca-re in this who-le world
 
 |--------------------------------------------------------------------|
 |--------------------------------------------------------------------|
 |--11\--7----14\--7----9\--7----11\--7--7/9--9--7\-------------------|
 |--------------------------------------------------------------------|
 |---9\--5----12\--5----7\--5-----9\--5--5/7--7--5\-------------------|
 |-------0---------0--------0---------0-------------------------------|
 |--------------------------------------------------------------------|
 |--------------------------------------------------------------------|
 |--------------------------------------------------------------------|
 |--7-----7------7--7--7/10-----10------10------10--10--10------------|
 |--7-----7------7--7--7/10-----10------10------10--10--10------------|
 |--7-----7------7--7--7/10-----10------10------10--10--10------------|

Without a ca-re in this life
 
 |--------------------------------------------------------------------|
 |--------------------------------------------------------------------|
 |--------------------------------------------------------------------|
 |--7-----7------7--7--7/10-----10------10------10--10--10------------|
 |--7-----7------7--7--7/10-----10------10------10--10--10------------|
 |--7-----7------7--7--7/10-----10------10------10--10--10------------|

It's what you take that makes it-
 
 |--------------------------------------------------------------------|
 |--------------------------------------------------------------------|
 |--------------------------------------------------------------------|
 |----5--5------5--5------5--5------5--5------5--5--5-----------------|
 |----5--5------5--5------5--5------5--5------5--5--5-----------------|
 |----5--5------5--5------5--5------5--5------5--5--5-----------------|

Ri-ght
Verse
[D] [A] 
[C] [G] [D] [A] 
Porcelina of the oceans blue
[C] 
Porcelina
[G] 
Porcelina
[D] [A] 
In the slipstream, of thoughtless thoughts
[C] [G] 
The light of all that's good, the light of all that's true
[D] [A] 
To the fringes gladly, I walk unadorned
[C] 
With gods and their creations
[G] 
With filth and disease
[D] [A] 
Porcelina, she waits for me there
[C] 
With seashell hissing lullabyes
[G] [D] 
And whispers fathomed deep inside my own
[C] [G] 
Hidden thoughts and alibis
[D] [C] 
My secret thoughts come alive
Chorus
 
 |--------------------------------------------------------------------|
 |--------------------------------------------------------------------|
 |--11\--7----14\--7----9\--7----11\--7--7/9--9--7\-------------------|
 |--------------------------------------------------------------------|
 |---9\--5----12\--5----7\--5-----9\--5--5/7--7--5\-------------------|
 |-------0---------0--------0---------0-------------------------------|
 |--------------------------------------------------------------------|
 |--------------------------------------------------------------------|
 |--------------------------------------------------------------------|
 |--7-----7------7--7--7/10-----10------10------10--10--10------------|
 |--7-----7------7--7--7/10-----10------10------10--10--10------------|
 |--7-----7------7--7--7/10-----10------10------10--10--10------------|

Without a ca-re in this who-le world
 
 |--------------------------------------------------------------------|
 |--------------------------------------------------------------------|
 |--11-11\--7----14-14\--7----9-9\--7----11-11\--7--7/9--9--7\--------|
 |--------------------------------------------------------------------|
 |---9--9\--5----12-12\--5----7-7\--5-----9--9\--5--5/7--7--5\--------|
 |----------0------------0----------0------------0--------------------|
 |--------------------------------------------------------------------|
 |--------------------------------------------------------------------|
 |--------------------------------------------------------------------|
 |--7-----7------7--7--7/10-----10------10------10--10--10------------|
 |--7-----7------7--7--7/10-----10------10------10--10--10------------|
 |--7-----7------7--7--7/10-----10------10------10--10--10------------|

Without a ca-re in this who-le world
 
 |--------------------------------------------------------------------|
 |--------------------------------------------------------------------|
 |--11\--7----14\--7----9\--7----11\--7--7/9--9--7\-------------------|
 |--------------------------------------------------------------------|
 |---9\--5----12\--5----7\--5-----9\--5--5/7--7--5\-------------------|
 |-------0---------0--------0---------0-------------------------------|
 |--------------------------------------------------------------------|
 |--------------------------------------------------------------------|
 |--------------------------------------------------------------------|
 |--7-----7------7--7--7/10-----10------10------10--10--10------------|
 |--7-----7------7--7--7/10-----10------10------10--10--10------------|
 |--7-----7------7--7--7/10-----10------10------10--10--10------------|

Without a ca-re in this life
 
 |--------------------------------------------------------------------|
 |--------------------------------------------------------------------|
 |--------------------------------------------------------------------|
 |--7-----7------7--7--7/10-----10------10------10--10--10------------|
 |--7-----7------7--7--7/10-----10------10------10--10--10------------|
 |--7-----7------7--7--7/10-----10------10------10--10--10------------|

It's what you take that makes it-
 
 |--------------------------------------------------------------------|
 |--------------------------------------------------------------------|
 |--------------------------------------------------------------------|
 |----5--5------5--5------5--5------5--5------5--5--5-----------------|
 |----5--5------5--5------5--5------5--5------5--5--5-----------------|
 |----5--5------5--5------5--5------5--5------5--5--5-----------------|

Ri-ght
 
 |--------------------------------------------------------------------|
 |--------------------------------------------------------------------|
 |--------------------------------------------------------------------|
 |--7---7---7---7---7--7--7/10---10---10---10---10---10--10--10-------|
 |--7---7---7---7---7--7--7/10---10---10---10---10---10--10--10-------|
 |--7---7---7---7---7--7--7/10---10---10---10---10---10--10--10-------|

And in my mind I'm Ev - ery - one
 
 |--------------------------------------------------------------------|
 |--------------------------------------------------------------------|
 |--------------------------------------------------------------------|
 |--7---7---7---7---7--7--7/10---10---10---10---10---10--10--10-------|
 |--7---7---7---7---7--7--7/10---10---10---10---10---10--10--10-------|
 |--7---7---7---7---7--7--7/10---10---10---10---10---10--10--10-------|

And in my mind I'm Ev - ery - one
 
 |--------------------------------------------------------------------|
 |--------------------------------------------------------------------|
 |--------------------------------------------------------------------|
 |--7---7---7---7---7--7--7/10---10---10---10---10---10--10--10-------|
 |--7---7---7---7---7--7--7/10---10---10---10---10---10--10--10-------|
 |--7---7---7---7---7--7--7/10---10---10---10---10---10--10--10-------|

AND IN MY MIND I'M EV - ERY - ONE OF
 
 |-------------------------------------------------------------------------|
 |-------------------------------------------------------------------------|
 |-------------------------------------------------------------------------|
 |----5--5------5--5------5--5------5--5----------5----5-------------------|
 |----5--5------5--5------5--5------5--5----------5----5-------------------|
 |----5--5------5--5------5--5------5--5----------5----5-------------------|

YOU You make it
 
 |---------------------------------------------------------------------------|
 |---------------------------------------------------------------------------|
 |--11\-7-----------14-------------------------------------------------------|
 |--------------------------------5--5----5--5----5--5----5--5-------5---5---|
 |---9\-5---0-0-0-0-12----0-0-0-0-5--5----5--5----5--5----5--5-------5---5---|
 |----------0-0-0-0-------0-0-0-0-5--5----5--5----5--5----5--5-------5---5---|

Right It's all al-
 
 |---------------------------------------------------------------------------|
 |---------------------------------------------------------------------------|
 |--11\-7-----------14-------------------------------------------------------|
 |--------------------------------5--5----5--5----5--5----5--5-------5---5---|
 |---9\-5---0-0-0-0-12----0-0-0-0-5--5----5--5----5--5----5--5-------5---5---|
 |----------0-0-0-0-------0-0-0-0-5--5----5--5----5--5----5--5-------5---5---|

right You make it
 
 |---------------------------------------------------------------------------|
 |---------------------------------------------------------------------------|
 |--11\-7-----------14-------------------------------------------------------|
 |--------------------------------5--5----5--5----5--5----5--5-------5---5---|
 |---9\-5---0-0-0-0-12----0-0-0-0-5--5----5--5----5--5----5--5-------5---5---|
 |----------0-0-0-0-------0-0-0-0-5--5----5--5----5--5----5--5-------5---5---|

right
Outro
[D] [A] 
[C] [G] 
Porcelina of the oceans blue
[D] [A] 
[C] [G] 
Porcelina of the oceans blue
[D] [A] [C] [G] 
[D] [A] [C] [G] 
[D] [A] [C] [G] 

Important: The song above is NOT stored on the Chordie server. The original song is hosted at www.guitaretab.com. Chordie works as a search engine and provides on-the-fly formatting. Chordie does not index songs against artists'/composers' will. To remove this song please click here.

Text color:
Chord color:
Chord grids: 
Font size:    
Page size: 

A C D G
Rate #3 of 7 versions

Login - add to songbook

SHARE PAGE  



You need to log in to post comments