Guitar Tabs, Chords and Lyrics
Major upgrade!! After one year development the new version of Chordie is now online! Please give feedback.


Mellon Collie and the Infinite Sadness  The Smashing Pumpkins

Mellon Collie and the Infinite Sadness
Smashing Pumpkins
"Mellon Collie and the Infinite Sadness"
Performance Notes: Tune down 1/2 step.
Piano Arranged for Guitar - Transcribed with much help from
Adam Benmo &
Eric Agnew < ? ! ?> (check out his web
page though at 'http://spaa.simplenet.com'
[D] [Em] [G]  
 
 e---------------------------------|---------------------|
 b-10-------------10-10---10--8--7-|-8---7---------3-----|
 g--7--------------7--7------------|-9---------9---4---4-|
 d--7-----------7------------------|-9-------------5-----|
 a--9--------9---------------------|-7-------------5-----|
 e-10----10------------------------|---------------3-----|

[D] [Em] [G]  
 
 e---------------------------------|---------------------|
 b-10-------------10-10---10--8--7-|-8---7---------3-----|
 g--7--------------7--7------------|-9---------9---4---4-|
 d--7-----------7------------------|-9-------------5-----|
 a--9--------9---------------------|-7-------------5-----|
 e-10----10------------------------|---------------3-----|

[C] [G] [D]  
 
 e-----------------------|-------------------------------|
 b-8---7-----5----3------|-10------------------------7---|
 g-5--------------4----4-|--7----------------7---9-------|
 d-5--------------5------|--7------------7---------------|
 a-7--------------5------|--9---------9------------------|
 e-8--------------3------|-10-----10---------------------|

[A9] [Gmaj7] [F(maj7)]  
 
 e-7----5-----3------2-----|------------------0---------|
 b-8----7-----5------3---3-|-1-------------------3---1--|
 g-----------------------4-|-2-------------2------------|
 d-7-----------------------|-3----------3---------------|
 a-0-----------------------|-3-------3------------------|
 e-------------------3-----|-1----1---------------------|

[G/B] [C] [Am]  
 
 e----------------------3-|-----------------------------|
 b-3---------3----5-----5-|-5---------------5-----------|
 g-0---------0----5-----5-|-5------------5------7----5--|
 d-0------0-------5-------|-7---------7-----------------|
 a-2---2----------3-------|-7------7--------------------|
 e------------------------|-5---5-----------------------|

[G/B] [C] [Am]  
 
 e----------------------3-|-----------------------------|
 b-3---------3----5-----5-|-5---------------5-----------|
 g-0---------0----5-----5-|-5------------5------7----5--|
 d-0------0-------5-------|-7---------7-----------------|
 a-2---2----------3-------|-7------7--------------------|
 e------------------------|-5---5-----------------------|

[G/B] [C] [Am]  
 
 e----------------------3-|-----------------------------|
 b-3---------3----5-----5-|-5---------------5-----------|
 g-0---------0----5-----5-|-5------------5------7----5--|
 d-0------0-------5-------|-7---------7-----------------|
 a-2---2----------3-------|-7------7--------------------|
 e------------------------|-5---5-----------------------|

[G] [F]  
 
 e---------------------------|--------------------------|
 b-3----------------3--------|-1---------------1---0----|
 g-4-------------4------5--4-|-2------------2---------0-|
 d-5----------5--------------|-3---------3--------------|
 a-5-------5-----------------|-3------3-----------------|
 e-3----3--------------------|-1---1--------------------|

Extra Strings Enter
[D] [Em] [G]  
 
 e---------------------------------|---------------------|
 b-10-------------10-10---10--8--7-|-8---7---------3-----|
 g--7--------------7--7------------|-9---------9---4---4-|
 d--7-----------7------------------|-9-------------5-----|
 a--9--------9---------------------|-7-------------5-----|
 e-10----10------------------------|---------------3-----|

[D] [Em] [G]  
 
 e---------------------------------|---------------------|
 b-10-------------10-10---10--8--7-|-8---7---------3-----|
 g--7--------------7--7------------|-9---------9---4---4-|
 d--7-----------7------------------|-9-------------5-----|
 a--9--------9---------------------|-7-------------5-----|
 e-10----10------------------------|---------------3-----|

[C] [G] [D]  
 
 e-----------------------|-------------------------------|
 b-8---7-----5----3------|-10------------------------7---|
 g-5--------------4----4-|--7----------------7---9-------|
 d-5--------------5------|--7------------7---------------|
 a-7--------------5------|--9---------9------------------|
 e-8--------------3------|-10-----10---------------------|

[C5] [G] [D]  
 
 e------------------0----|---------------0---2-----------|
 b---------------------3-|------------3------------------|
 g-5-------4-----------2-|---------2---------------------|
 d-5---4---5-----------4-|------4------------------------|
 a-3-------5-----------5-|---5---------------------------|
 e---------3-------------|-------------------------------|

[C5] [G] [D]  
 
 e------------------0----|---------------0---2-----------|
 b---------------------3-|------------3------------------|
 g-5-------4-----------2-|---------2---------------------|
 d-5---4---5-----------4-|------4------------------------|
 a-3-------5-----------5-|---5---------------------------|
 e---------3-------------|-------------------------------|

[C5] [G] [D]  
 
 e------------------0----|----------------5---5----------|
 b---------------------3-|------------3---5---7----------|
 g-5-------4-----------2-|---------2---------------------|
 d-5---4---5-----------4-|------4------------------------|
 a-3-------5-----------5-|---5---------------------------|
 e---------3-------------|-------------------------------|

[A9] [Gmaj7(sus2)] [Fmaj7]  
 
 e-7--------------2-----------|-0---------------0--------|
 b-8---7----------3-----2-----|-1------------------3--1--|
 g-9---7----------------3-----|-2-------------2----------|
 d-7---------7----------0-----|-3----------3-------------|
 a-0------0-------------------|-3-------3----------------|
 e----------------3-----------|-1----1-------------------|

[G/B] [C] [Am]  
 
 e----------------------3-|-----------------------------|
 b-3---------3----5-----5-|-5---------------5-----------|
 g-0---------0----5-----5-|-5------------5------7----5--|
 d-0------0-------5-------|-7---------7-----------------|
 a-2---2----------3-------|-7------7--------------------|
 e------------------------|-5---5-----------------------|

[G/B] [C] [Am]  
 
 e----------------------3-|-----------------------------|
 b-3---------3----5-----5-|-5---------------5-----------|
 g-0---------0----5-----5-|-5------------5------7----5--|
 d-0------0-------5-------|-7---------7-----------------|
 a-2---2----------3-------|-7------7--------------------|
 e------------------------|-5---5-----------------------|

[G/B] [C] [Am]  
 
 e----------------------3-|-----------------------------|
 b-3---------3----5-----5-|-5---------------5-----------|
 g-0---------0----5-----5-|-5------------5------7----5--|
 d-0------0-------5-------|-7---------7-----------------|
 a-2---2----------3-------|-7------7--------------------|
 e------------------------|-5---5-----------------------|

G F (ritardando)
 
 e---------------------------|--------------------------|
 b-3----------------3--------|-1---------------1---0----|
 g-4-------------4------5--4-|-2------------2---------0-|
 d-5----------5--------------|-3---------3--------------|
 a-5-------5-----------------|-3------3-----------------|
 e-3----3--------------------|-1---1--------------------|

D (a tempo) Em G
 
 e---------------------------------|---------------------|
 b-10-------------10-10---10--8--7-|-8---7---------3-----|
 g--7--------------7--7------------|-9---------9---4---4-|
 d--7-----------7------------------|-9-------------5-----|
 a--9--------9---------------------|-7-------------5-----|
 e-10----10------------------------|---------------3-----|

[D] [Em] [G]  
 
 e---------------------------------|---------------------|
 b-10-------------10-10---10--8--7-|-8---7---------3-----|
 g--7--------------7--7------------|-9---------9---4---4-|
 d--7-----------7------------------|-9-------------5-----|
 a--9--------9---------------------|-7-------------5-----|
 e-10----10------------------------|---------------3-----|

[C] [G] [D]  
 
 e-----------------------|-------------------------------|
 b-8---7-----5----3------|-10------------------------7---|
 g-5--------------4----4-|--7----------------7---9-------|
 d-5--------------5------|--7------------7---------------|
 a-7--------------5------|--9---------9------------------|
 e-8--------------3------|-10-----10---------------------|

[A9] [Gmaj7] [F(maj7)]  
 
 e-7----5-----3------2-----|------------------0---------|
 b-8----7-----5------3---3-|-1-------------------3---1--|
 g-----------------------4-|-2-------------2------------|
 d-7-----------------------|-3----------3---------------|
 a-0-----------------------|-3-------3------------------|
 e-------------------3-----|-1----1---------------------|

[Em7] [Fmaj7]  
 
 e---------------------------|-0---------------0--------|
 b-3---------------3---1---0-|-1------------------3---1-|
 g-0------------0------------|-2------------2-----------|
 d-2---------2---------------|-3---------3--------------|
 a-2------2------------------|-3------3-----------------|
 e-0---0---------------------|-1---1--------------------|

Em7 D (strings silent)
^ ^ ^ ^
 
 e---------------------------|--------------9---10---22-|
 b-3---------------3---1---0-|------2---3---------------|
 g-0------------0------------|-2------------------------|
 d-2---------2---------------|-0------------------------|
 a-2------2------------------|-0------------------------|
 e-0---0---------------------|--------------------------|

Written Out by The Loan Arranger c9609436@alinga.newcastle.edu.au
[13/2/97] 

Important: The song above is NOT stored on the Chordie server. The original song is hosted at www.guitaretab.com. Chordie works as a search engine and provides on-the-fly formatting. Chordie does not index songs against artists'/composers' will. To remove this song please click here.

Text color:
Chord color:
Chord grids: 
Font size:    
Page size: 

Am C C5 D Em Em7 F F(maj7) Fmaj7 G G/B Gmaj7
Rate #1 of 4 versions

Login - add to songbook

SHARE PAGE  



You need to log in to post comments