Guitar Tabs, Chords and Lyrics
Server problems seems to be fixed. Chordie has been experiencing problems with songs disappearing. These issues now seems to be fixed, but still verifying the fix. If you find anything strange, please email admin@chordie.com.


Starz  The Smashing Pumpkins

As recorded by The Smashing Pumpkins
(From the 2007 Album ZEITGEIST)
Words and Music by Billy Corgan
Transcribed by Leah Bush
Gtr I (Eb Ab Db Gb Bb Eb) - 'Untitled'
Gtr II (Eb Ab Db Gb Bb Eb) - 'Untitled'
Gtr III (Eb Ab Db Gb Bb Eb) - 'Untitled'
Gtr IV (Eb Ab Db Gb Bb Eb) - 'Untitled'
Intro
Q=130
[E5] [C5] [D5] 
[4/4] Gtr I
 
 PM------------|
 ||------------------------|----------------|
 ||o-----------------------|----------------|
 ||------------------------|-----------7-7--|
 ||--2-2-4-2-5p=4--0-5-(5)-|-5-5-5-5-5-7-7--|
 ||o-2-2-2-2-2--2--0-3-(3)-|-3-3-3-3-3S5-5--|
 ||--0-0-0-0-0-(0)---------|----------------|

[E5] [C5] [D5]  
 
 PM--------|
 |---------------------|-------------------||
 |---------------------|------------------o||
 |---------------------|-----------7-7-----||
 |-2-2-4-2-5p=4--0-5-5-|-5-5-5-5-5-7-7-----||
 |-2-2-2-2-2--2--0-3-3-|-3-3-3-3-3S5-5----o||
 |-0-0-0-0-0-(0)-------|-------------------||

Verses
[E5] >
 
 |----------|------------|------------|--------|
 |----------|------------|------------|--------|
 |----------|------------|------------|--------|
 |-2--------|-(2)--------|-(2)--------|-(2)----|
 |-2--------|-(2)--------|-(2)--------|-(2)----|
 |-0--------|-(0)--------|-(0)--------|-(0)----|

[E5]Gtr II[C5] [D5]
 
 ||------------------------|-------------0--|
 ||o-----------------------|---------0------|
 ||------------------------|-----------0----|
 ||------------------------|----------------|
 ||o-----------------------|----------------|
 ||------------------------|----------------|

|
| Gtr I
 
 | PM------------|
 ||------------------------|----------------|
 ||o-----------------------|----------------|
 ||------------------------|----------------|
 ||--2-2-4-2-5p=4--0-5-(5)-|-5-5-5-5-5-7-7--|
 ||o-2-2-2-2-2--2--0-3-(3)-|-3-3-3-3-3S5-5--|
 ||--0-0-0-0-0-(0)---------|----------------|

[E5] [C5] [D5]  
 
 |-(0)-------------------|-------------0----||
 |-----------------------|---------0-------o||
 |-----------------------|-----------0------||
 |-----------------------|------------------||
 |-----------------------|-----------------o||
 |-----------------------|------------------||

|
 
 | PM---------|
 |-----------------------|------------------||
 |-----------------------|-----------------o||
 |-----------------------|------------------||
 |--2--2-4-2-5p=4--0-5-5-|-5-5-5-5-5-7-7----||
 |--2--2-2-2-2--2--0-3-3-|-3-3-3-3-3S5-5---o||
 |--0--0-0-0-0-(0)-------|------------------||

Gtr I [C5]Gtr[G5]s I, II
 
 |----------------|------------------|---------------|---------------|
 |----------------|---------------0--|---------------|---------------|
 |----------------|--2-------(2)-(2)-|---------------|----------5----|
 |-2------(2)--2--|-(2)------(2)-(2)-|-2--0-2--0--/4-|-(4)-0----5--5-|
 |-2------(2)-(2)-|-(2)------(2)-(2)-|---------------|----------3--5-|
 |-0------(0)-(0)-|-(0)------(0)-(0)-|---------------|-------------3-|

Pre-Choruses
[G5] [D5] [A5] [E5] [G5]  
 
 |---------------|----------------0-|-(0)--0--0-0----|
 |---------------|----------------0-|-(0)--0--0-0----|
 |----------7----|----------------x-|-(x)--x---------|
 |-(5)--5---7--7-|-(7)--7---------2-|-(2)--2-------5-|
 |-(5)--5---5--7-|-(7)--7---------2-|-(2)--2--2-2--5-|
 |-(3)--3------5-|-(5)--5-0-5h6h7-0-|-(0)--0--0-0--3-|

[D5] [C5] [G5] [B5] [A5] [E5] [G5]  
 
 |---------------|-----------------|----------------0-|-(0)--0--0-0----|
 |---------------|-----------------|----------------0-|-(0)--0--0-0----|
 |-------7--5----|-----------------|----------------x-|-(x)--x---------|
 |-(5)---7--5--5-|-(5)----(5)-9--7-|-(7)--7---------2-|-(2)--2-------5-|
 |-(5)---5--3--5-|-(5)----(5)-9--7-|-(7)--7---------2-|-(2)--2--2-2--5-|
 |-(3)---------3-|-(3)----(3)-7--5-|-(5)--5-0-5h6h7-0-|-(0)--0--0-0--3-|

[D5] [C5] [G5] [B5] [A5] [E5]  
 
 |---------------|-----------------|----------------0-|
 |---------------|-----------------|----------------0-|
 |-------7--5----|-----------------|----------------x-|
 |-(5)---7--5--5-|-(5)----(5)-9--7-|-(7)--7---------2-|
 |-(5)---5--3--5-|-(5)----(5)-9--7-|-(7)--7---------2-|
 |-(3)---------3-|-(3)----(3)-7--5-|-(5)--5-0-5h6h7-0-|

[G5] [E5]  
 
 |-(0)--------|---------------------------|
 |-(0)--------|---------------------------|
 |-(x)--------|---------------------------|
 |-(2)--------|----------------------5--2-|
 |-(2)--------|----------------------5--2-|
 |-(0)--------|------3--0-|

Choruses
Gtr IV[A5] [G5] [B5] [E5]
 
 |-12--14-15---------|-15--14-15-12------(12)-|
 |-------------------|------------------------|
 |-------------------|------------------------|
 |-------------------|------------------------|
 |-------------------|------------------------|
 |-------------------|------------------------|

|
| Gtr III
 
 |-------------------|------------------------|
 |--5---3--5---------|--5---3--5--------------|
 |-------------------|------------4-------(4)-|
 |-------------------|------------------------|
 |-------------------|------------------------|
 |-------------------|------------------------|

|
| Gtrs I, II
 
 |-------------------|------------------------|
 |-------------------|------------------------|
 |-------------------|------------------------|
 |-(2)-----2--2-7--5-|-(5)-----5----5-9----2--|
 |-(2)-----2--2-7--5-|-(5)-----5----5-9----2--|
 |-(0)-----0--0-5--3-|-(3)-----3----3-7----0--|

[AG5] [E55]  
 
 |-15--14-15-----------|-15--14-15-12------(12)---|
 |---------------------|--------------------------|
 |---------------------|--------------------------|
 |---------------------|--------------------------|
 |---------------------|--------------------------|
 |---------------------|--------------------------|

|
 
 |---------------------|--------------------------|
 |--5---3--5-----------|--5---3--5----------------|
 |---------------------|------------4-------(4)---|
 |---------------------|--------------------------|
 |---------------------|--------------------------|
 |---------------------|--------------------------|

|
 
 |---------------------|--------------------------|
 |---------------------|--------------------------|
 |---------------------|--------------------------|
 |-(2)-----2--2-7--5---|-(5)-----5----5-9----2----|
 |-(2)-----2--2-7--5---|-(5)-----5----5-9----2----|
 |-(0)-----0--0-5--3---|-(3)-----3----3-7----0----|

[A5] [G5] [B5E5]  
 
 |-12--14-15---------|-15--14-15-12------(12)-|
 |-------------------|------------------------|
 |-------------------|------------------------|
 |-------------------|------------------------|
 |-------------------|------------------------|
 |-------------------|------------------------|

|
 
 |-------------------|------------------------|
 |--5---3--5---------|--5---3--5--------------|
 |-------------------|------------4-------(4)-|
 |-------------------|------------------------|
 |-------------------|------------------------|
 |-------------------|------------------------|

|
 
 |-------------------|------------------------|
 |-------------------|------------------------|
 |-------------------|------------------------|
 |-(2)-----2--2-7--5-|-(5)-----5----5--9---2--|
 |-(2)-----2--2-7--5-|-(5)-----5----5--9---2--|
 |-(0)-----0--0-5--3-|-(3)-----3----3--7---0--|

[A5] [G5] [G5] [E5]  
 
 |-15--14-15---------|-15--14-15-12------(12)-|
 |-------------------|------------------------|
 |-------------------|------------------------|
 |-------------------|------------------------|
 |-------------------|------------------------|
 |-------------------|------------------------|

|
 
 |-------------------|------------------------|
 |--5---3--5---------|--5---3--5--------------|
 |-------------------|------------4-------(4)-|
 |-------------------|------------------------|
 |-------------------|------------------------|
 |-------------------|------------------------|

|
 
 |-------------------|------------------------|
 |-------------------|------------------------|
 |-------------------|------------------------|
 |-(2)-----2--2-7--5-|-(5)-----5----5-9----2--|
 |-(2)-----2--2-7--5-|-(5)-----5----5-9----2--|
 |-(0)-----0--0-5--3-|-(3)-----3----3-7----0--|

N.C. G5 E5
 
 |-0--------|---------------------------|
 |-0--------|---------------------------|
 |-x--------|---------------------------|
 |-2--------|----------------------5--2-|
 |-2--------|----------------------5--2-|
 |-0--------|------3--0-|

Bridge
Gtr I[D5] [E5] [D5] [D5] [E5] [D5]
3x
 
 |----------|------------||-----------------|------------------||
 |----------|------------||o----------------|-----------------o||
 |----------|------------||-----------------|------------------||
 |----------|------------||--9-9-7--9-9-7-9-|-(9)-9-7-0-9--7---||
 |-7--------|-(7)--------||o-7-7-5--7-7-5-7-|-(7)-7-5-0-7--5--o||
 |-0--------|-(0)--------||--0-0----0-------|------------------||

[E5]Gtr [D5]II[E5] [D5E5] [G5] [F#5G5] [E]
>
 
 |----------------|-----15--14-15----|-12--------|-(12)----|
 |----------------|------------------|-----------|---------|
 |----------------|------------------|-----------|---------|
 |----------------|------------------|-----------|---------|
 |----------------|------------------|-----------|---------|
 |----------------|------------------|-----------|---------|

|
| Gtr I
| >
 
 |----------------|------------------|-----------|---------|
 |----------------|------------------|-----------|---------|
 |----------------|------------------|-----------|---------|
 |-9-9-7--9-9-7-9-|-(9)--------------|-----------|---------|
 |-7-7-5--7-7-5-7-|-(7)--5---4--5----|-----------|---------|
 |-0-0----0-------|------3---2--3----|--0--------|--(0)----|

Gtr I
3x
 
 ||-------------|-------------||--------|
 ||o------------|------------o||--------|
 ||-------------|-------------||--------|
 ||-------------|-------------||--------|
 ||o------------|------------o||--------|
 ||--(0)--------|-(0)---------||-(0)----|

Outro
 
 |-----------------|---------------|
 |-----------------|---------------|
 |-----------------|----------5----|
 |-----------------|----------5--5-|
 |-----------------|----------3--5-|
 |-0-0-0-0-0-0-0-0-|-0-0-0-0-----3-|

[G5] [D5] [A5] [E5] [G5]  
 
 |---------------|----------------0-|-(0)--0--0-0-----|
 |---------------|----------------0-|-(0)--0--0-0-----|
 |----------7----|----------------x-|-(x)--x----------|
 |-(5)--5---7--7-|-(7)--7---------2-|-(2)--2-------5--|
 |-(5)--5---5--7-|-(7)--7---------2-|-(2)--2--2-2--5--|
 |-(3)--3------5-|-(5)--5-0-5h6h7-0-|-(0)--0--0-0--3--|

[D5] [C5] [G5] [B5] [A5] [E5] [G5]  
 
 |---------------|------------------|----------------0-|-(0)--0--0-0----|
 |---------------|------------------|----------------0-|-(0)--0--0-0----|
 |-------7--5----|------------------|----------------x-|-(x)--x---------|
 |-(5)---7--5--5-|-(5)--5--(5)-9--7-|-(7)--7---------2-|-(2)--2-------5-|
 |-(5)---5--3--5-|-(5)--5--(5)-9--7-|-(7)--7---------2-|-(2)--2--2-2--5-|
 |-(3)---------3-|-(3)--3--(3)-7--5-|-(5)--5-0-5h6h7-0-|-(0)--0--0-0--3-|

[D5] [C5] [G5] [B5] [A5] [E5]  
 
 |---------------|----------------|----------------0-|
 |---------------|----------------|----------------0-|
 |-------7--5----|----------------|----------------x-|
 |-(5)---7--5--5-|-(5)--5--5-9--7-|-(7)--7---------2-|
 |-(5)---5--3--5-|-(5)--5--5-9--7-|-(7)--7---------2-|
 |-(3)---------3-|-(3)--3--3-7--5-|-(5)--5-0-5h6h7-0-|
 |-(0)-(0)\-------|-----*|
 |-(0)-(0)\-------|-----*|
 |-(x)-(x)\-------|-----*|
 |-(2)-(2)\-------|-----*|
 |-(2)-(2)\-------|-----*|
 |-(0)-(0)\-------|-----*|


Important: The song above is NOT stored on the Chordie server. The original song is hosted at www.guitaretab.com. Chordie works as a search engine and provides on-the-fly formatting. Chordie does not index songs against artists'/composers' will. To remove this song please click here.

Text color:
Chord color:
Chord grids: 
Font size:    
Page size: 

A5 B5 C5 D5 E E5 G5
Rate #2 of 2 versions

Jango Player

Login - add to songbook

SHARE PAGE  




You need to log in to post comments