Guitar Tabs, Chords and Lyrics
Server problems seems to be fixed. Chordie has been experiencing problems with songs disappearing. These issues now seems to be fixed, but still verifying the fix. If you find anything strange, please email admin@chordie.com.


Zeitgeist  The Smashing Pumpkins

Tabs for every single song on Zeitgiest some found on other websites but
everything else from UG. These websites are
www.spfc.com
www.0bscured.com
Ttabs.com
Some of those songs are really tough but sound great played well so good luck but
the strumming for some of the tabs is not shone. Im pretty sure that these tabs
are correct. The Following artists work is in these tabs and they must be
recognized.
Doomsday Clock - Leah Bush - (www.spfc.com)
7 Shades Of Black - bgoold@gmail.com - (www.0bscured.com)
Bleeding The Orchid - bgoold@gmail.com - (www.0bscured.com)
That's The Way (My Love Is) - zamarguitar
Tarantula - Chad Corgan
Starz - Leah Bush - (www.spfc.com)
United States - redburstibanez@yahoo.com
Neverlost - bgoold@gmail.com - (www.0bscured.com)
Bring The Light - bgoold@gmail.com
(Come On) Let's Go! - PumpkinHead94
For God And Country - Unknown
Pomp And Circumstances - Rincewind - (www.spfc.com)
************************************************************
 
 ------------------------------------------------------------

Track 1. Doomsday Clock
 
 ------------------------------------------------------------

DOOMSDAY CLOCK
As recorded by The Smashing Pumpkins
(From the 2007 Album ZEITGEIST)
Words and Music by Billy Corgan
Transcribed by Leah Bush
Gtr I (Db Ab Db Gb Bb Eb) - 'Untitled'
Gtr II (Db Ab Db Gb Bb Eb) - 'Untitled'
Intro
Q=100
[D5] [F5] [G5] [B5] 
[4/4] Gtr I
 
 ||----------------------------------|----------------------------------||
 ||o---------------------------------|---------------------------------o||
 ||----------------------------------|----------------------------------||
 ||----------------------------------|----------------------------------||
 ||o---------------------------------|---------------------------------o||
 ||--0-0-0-0-0-0-0-0-0-0-0-0-0-0-0-0-|-3-3-3-3-3-3-3-3-5-5-5-5-9-9-9-9--||

$
[D5] [F5] [G5] [B5]  
 
 |---------------------------------|---------------------------------|
 |---------------------------------|---------------------------------|
 |---------------------------------|---------------------------------|
 |---------------------------------|---------------------------------|
 |---------------------------------|---------------------------------|
 |-0-0-0-0-0-0-0-0-0-0-0-0-0-0-0-0-|-3-3-3-3-3-3-3-3-5-5-5-5-9-9-9-9-|

|
| Gtr II
 
 |---------------------------------|---------------------------------|
 |---------------------------------|---------------------------------|
 |---------------------------------|---------------------------------|
 |---------------------------------|---------------------------------|
 |---------------------------------|---------------------------------|
 |-0-------------------------------|-3---------------2-------9-------|

[D5] [F5] [G5] [B5]  
 
 |------------------------------------|----------------------------------------|
 |------------------------------------|----------------------------------------|
 |------------------------------------|----------------------------------------|
 |------------------------------------|----------------------------------------|
 |------------------------------------|----------------------------------------|
 |-0-0-0-0-0-0-0-0-0-0-0-0--0--0--0-0-|---3--3-3-3-3-3-3-3---5---5-5-5-9-9-9-9-|

|
| Gtr II
 
 |-------------------------------17---|-(17)---------------(17)\---------------|
 |------------------------------------|----------------------------------------|
 |------------------------------------|----------------------------------------|
 |------------------------------------|----------------------------------------|
 |------------------------------------|----------------------------------------|
 |-0-----------------------(0)--------|----------------------------------------|

[D5]Gtrs I, II[F5] [G5] [B5]
4x
 
 ||----------------------------------|-----------------------------------||
 ||o---------------------------------|----------------------------------o||
 ||----------------------------------|-----------------------------------||
 ||----------------------------------|-----------------------------------||
 ||o---------------------------------|----------------------------------o||
 ||--0-0-0-0-0-0-0-0-0-0-0-0-0-0-0-0-|-3-3-3-3-3-3-3-3-5-5-5-5-9-9-9-9---||

Pre-Chorus
[Bb5]  
 
 |---------------------------------|
 |---------------------------------|
 |---------------------------------|
 |-8-8-8-8-8-8-8-8-8-8-8-8-8-8-8-8-|
 |-8-8-8-8-8-8-8-8-8-8-8-8-8-8-8-8-|
 |-8-8-8-8-8-8-8-8-8-8-8-8-8-8-8-8-|

[Dm]  
 
 |-------------------------------------------------|
 |-------------------------------------------------|
 |-10-10-10-10-10-10-10-10-10-10-10-10-10-10-10-10-|
 |--0--0--0--0--0--0--0--0--0--0--0--0--0--0--0--0-|
 |--8--8--8--8--8--8--8--8--8--8--8--8--8--8--8--8-|
 |--0--0--0--0--0--0--0--0--0--0--0--0--0--0--0--0-|

To Coda
[C5] [A5] [Amadd9]  
 
 |----------------------------------------------------|-0----0----|
 |----------------------------------------------------|-x----0----|
 |--0--0--0--0--0--0--0--0--0--0--0--0--0--0--0--(0)\-|-x----5----|
 |-10-10-10-10-10-10-10-10-10-10-10-10-10-10-10-(10)\-|-7----7----|
 |-10-10-10-10-10-10-10-10-10-10-10-10-10-10-10-(10)\-|-7----7----|
 |-10-10-10-10-10-10-10-10-10-10-10-10-10-10-10-(10)\-|-7----7----|

[D5] [F5] [Bb5] [Bb5] [C#5] [E5]  
 
 |-----------------------------------|-----------------------------|
 |-----------------------------------|-----------------------------|
 |-----------------------------------|-----------------------------|
 |-----------------------------------|------------------6-6-6-6-9--|
 |-------------------3-3-3-3-8-8-(8)-|-/8-8-8-8-8-8-8-8-4-4-4-4-7--|
 |-0-0-0-0-0-0-0-0-0-3-3-3-3S8-8-(8)-|-/8-8-8-8-8-8-8-8------------|

[D5] [F5] [Bb5] [C#5] [A5]  
 
 |-----------------------------------|---------------------------------|
 |-----------------------------------|---------------------------------|
 |-----------------------------------|---------------------------------|
 |-----------------------------------|------------------6-6-6-6--------|
 |-------------------3-3-3-3-8-8-(8)-|-/8-8-8-8-8-8-8-8-4-4-4-4-7-7-7--|
 |-0-0-0-0-0-0-0-0-0-3-3-3-3S8-8-(8)-|-/8-8-8-8-8-8-8-8---------7-7-7--|

Chorus
[D5] [BbD5F5] [A5] [C5] [D5G5]  
 
 ||---------------------------|------------------------------||
 ||o--------------------------|-----------------------------o||
 ||---------------------------|------------------------------||
 ||--------------------8---3--|-/7-7-7-7-7-7-7-7-7-10---5----||
 ||o-------------------8---3--|-/7-7-7-7-7-7-7-7-7-10---5---o||
 ||--0-0-0-0-0-0-0-0-0-8-0-3--|-/7-7-7-7-7-7-7-7-7-10-0-5----||

D.S. al Coda
[D5] [BbD5F5] [A5] [C5] [D5G5] [D5]  
 
 |--------------------------|---------------------------|-------|
 |--------------------------|---------------------------|-------|
 |--------------------------|---------------------------|-------|
 |-------------------8---3--|-7-7-7-7-7-7-7-7-7-10---5--|-------|
 |-------------------8---3--|-7-7-7-7-7-7-7-7-7-10---5--|-------|
 |-0-0-0-0-0-0-0-0-0-8-0-3--|-7-7-7-7-7-7-7-7-7-10-0-5--|-0-----|

&
[D5] [BbD5F5] [A5] [C5] [D5G5] 4x
 
 ||---------------------------|-----------------------------||
 ||o--------------------------|----------------------------o||
 ||---------------------------|-----------------------------||
 ||--------------------8---3--|-7-7-7-7-7-7-7-7-7-10---5----||
 ||o-------------------8---3--|-7-7-7-7-7-7-7-7-7-10---5---o||
 ||--0-0-0-0-0-0-0-0-0-8-0-3--|-7-7-7-7-7-7-7-7-7-10-0-5----||

Bridge I
D5 N.C.
 
 |----------|----------------------------------------|
 |----------|----------------------------------------|
 |----------|----------------------------------------|
 |----------|----------------------------------------|
 |----------|----------------------------------------|
 |-0--------|-(0)------------|

[D5F5] [D5] [F5] [G5] [A5]  
 
 PM----------------------------------------------------|
 ||--------------------------|-----------------------------|
 ||o-------------------------|-----------------------------|
 ||--------------------------|-----------------------------|
 ||--------------------------|-----------------------------|
 ||o-------------------------|-----------------------------|
 ||--0-3-3-3-3-3-0-0-0-0-0-0-|-0-3-3-3-3-3-0-0-0-5-5-7-7---|

[D5F5] [D5]  
[2/4]  
 
 PM--------------------------------------------|
 |-------------------------|---------------------|
 |-------------------------|-----------------o---|
 |-------------------------|---------------------|
 |-------------------------|---------------------|
 |-------------------------|-----------------o---|
 |-0-3-3-3-3-3-0-0-0-0-0-0-|-0-0-0-0-0-0-0-0-----|

Bridge II
[F5] [C5] 
[4/4]  
 
 ||-----------------------------------------------|
 ||o----------------------------------------------|
 ||-----------------------------------------------|
 ||-----------------------------------------------|
 ||o----------------------------------------------|
 ||--12-12-12-12-12-12-12-0-15-15-15-0-10-10-10-0-|

[Bb5] [C5] [C#5]  
 
 |------------------------------------------||
 |-----------------------------------------o||
 |------------------------------------------||
 |------------------------------------------||
 |-----------------------------------------o||
 |-8-8-8-8-8-8-8-8-10-10-10-10-11-11-11-11--||

[D5] [F5] [C5]  
 
 |----------------------------------------------|
 |----------------------------------------------|
 |----------------------------------------------|
 |----------------------------------------------|
 |----------------------------------------------|
 |-12-12-12-12-12-12-12-0-15-15-15-0-10-10-10-0-|

[Bb5] [C5] [C#5] [D5]  
 
 |-----------------------------------------|
 |-----------------------------------------|
 |-----------------------------------------|
 |-----------------------------------------|
 |-----------------------------------------|
 |-8-8-8-8-8-8-8-8-10-10-10-10-11-11-0-(0)-|

[G5] [D5] [C5] [G5] [D5] [C5]  
 
 |------------------------|------------------------|
 |------------------------|------------------------|
 |------------------------|------------------------|
 |---------------------5--|---------------------5--|
 |---------------------3--|---------------------3--|
 |-5-5-5-5-5-3-5-0-0-0----|-5-5-5-5-5-3-5-0-0-0----|

[G5] [F5G5D5] [G5] [G#5A5] [Bb5]  
[3/4] [4/4]  
 
 |---------------------|--------------|
 |---------------------|--------------|
 |---------------------|-7--8--9--10--|
 |---------------------|-5--6--7---8--|
 |---------------------|-5--6--7---8--|
 |-5-5-5-5-5-3-5-0-0-0-|-5--6--7---8--|

Outro
[D5] [BbD5F5] [A5] [C5] [D5G5] 5x
 
 ||---------------------------|-----------------------------||
 ||o--------------------------|----------------------------o||
 ||---------------------------|-----------------------------||
 ||--------------------8---3--|-7-7-7-7-7-7-7-7-7-10---5----||
 ||o-------------------8---3--|-7-7-7-7-7-7-7-7-7-10---5---o||
 ||--0-0-0-0-0-0-0-0-0-8-0-3--|-7-7-7-7-7-7-7-7-7-10-0-5----||

[D5] [BbD5F5] [A5] [C5] [D5G5] [D5]  
 
 |--------------------------|---------------------------|--------------*|
 |--------------------------|---------------------------|--------------*|
 |--------------------------|---------------------------|--------------*|
 |-------------------8---3--|-7-7-7-7-7-7-7-7-7-10---5--|-7--(7)\------*|
 |-------------------8---3--|-7-7-7-7-7-7-7-7-7-10---5--|-5--(5)\------*|
 |-0-0-0-0-0-0-0-0-0-8-0-3--|-7-7-7-7-7-7-7-7-7-10-0-5--|-0--(0)\------*|

************************************************************
 
 ------------------------------------------------------------

Track 2. 7 Shades Of Black
 
 ------------------------------------------------------------

--title: 7 shades of black
--release: zeitgeist
--last updated: 07.08.07
--transcription by: bgoold@gmail.com
--website: http://www.0bscured.com
--tuning: Db Gb B E Ab Db
--INTRO
 
 |-------------------------------------------------------------------------------|
 |-------------------------------------------------------------------------------|
 |-------------------------------------------------------------------------------|
 |-5-5--5-5--5-5--5-5--5--5--6-6--6-6--6-6--6-6--6--6--7-7--7-7--7-7--7-7--7--7--|
 |-5-5--5-5--5-5--5-5--5--5--6-6--6-6--6-6--6-6--6--6--7-7--7-7--7-7--7-7--7--7--|
 |-3-3--3-3--3-3--3-3--3--3--4-4--4-4--4-4--4-4--4--4--5-5--5-5--5-5--5-5--5--5--|
 |------------------------------------------------------------------------------------------|
 |------------------------------------------------------------------------------------------|
 |------------------------------------------------------------------------------------------|
 |------------------------------------------------------------------------------------------|
 |------------------------------------------------------------------------------------------|
 |-0h8-8-8-0h8-8-8-0h8-8-0h7-7-7-0h7-7-7-0h10-10-0h8-8-8-0h8-8-8-0h8-8-0h7-7-7-0h10-10--/\--|

Lead - Play with whammy set to 2 octaves higher
 
 |-12~~~~~~--11~~~~~~\--12~~~~-12b14r12-11~~~~~~\--|
 |-------------------------------------------------|
 |-------------------------------------------------|
 |-------------------------------------------------|
 |-------------------------------------------------|
 |-------------------------------------------------|

--VERSE
 
 |------------------------------------------------------------------------------------------|
 |------------------------------------------------------------------------------------------|
 |------------------------------------------------------------------------------------------|
 |------------------------------------------------------------------------------------------|
 |------------------------------------------------------------------------------------------|
 |-0h8-8-8-0h8-8-8-0h8-8-0h7-7-7-0h7-7-7-0h10-10-0h8-8-8-0h8-8-8-0h8-8-0h7-7-7-0h10-10--/\--|

--PRECHORUS
 
 |------------------------------------------------------------------------------------------|
 |------------------------------------------------------------------------------------------|
 |------------------------------------------------------------------------------------------|
 |------------------------------------------------------------------------------------------|
 |------------------------------------------------------------------------------------------|
 |-0h8-8-8-0h8-8-8-0h8-8-0h7-7-7-0h7-7-7-0h10-10-0h8-8-8-0h8-8-8-0h8-8-0h7-7-7-0h10-10--/\--|

--CHORUS
 
 |-------------------------------------------------------------------------------------|
 |-------------------------------------------------------------------------------------|
 |--------------------------------------------------------------------------------4----|
 |---------------------------------------------------------------------------5----4----|
 |---------------------------------------------------------------------------5----2----|
 |-0h12-12-12-0h12-12-12-0h12-12-0h8-8-8-0h8-8-8-0h8-8-0h5-5-5-0h5-5-5-0h5-5-3---------|
 ---------------------------------------------------------------------------------------------|
 ----------------------------------------------------------------------------------------------|
 ----------------------------------------------------------4-----------------------------------|
 -----------------------------------------------------5----4-----------------------------------|
 -----------------------------------------------------5----2-----------------------------------|
 -0h12-12-12-0h12-12-12-0h12-12-0h8-8-8-0h8-8-8-0h8-8-3---------0h12-12-12-0h12-12-12-0h12-12--|

Lead fill
 
 |-------12b14r12-11~~-12~~\--|
 |-10/12----------------------|
 |----------------------------|
 |----------------------------|
 |----------------------------|
 |----------------------------|

Guitar 1
 
 |---------------|
 |---------------|
 |---------4-----|
 |--5------4-----|
 |--5------2-----|
 |--3------------|

|Guitar 2
 
 |---------------|
 |---------------|
 |-/12----/11----|
 |---------------|
 |---------------|
 |---------------|

--BRIDGE
 
 |----------------------------------------------------------|
 |----------------------------------------------------------|
 |----------------------------------------------------------|
 |----------------------------------------------------------|
 |----------------------------------------------------------|
 |-7--5--7--0--10-7-8--8--5--5--7--5--7--0--10-7-8~~--11~~--|
 |----------------------------------------------------------|
 |----------------------------------------------------------|
 |----------------------------------------------------------|
 |----------------------------------------------------------|
 |----------------------------------------------------------|
 |-7--5--7--0--10-7-8--8--5--5--5--3--5--0-8-0--10~~--11~~--|

Lead
 
 |--------------------------------------------------------------------|
 |-12~~~~-13~~-10~~-12~~~~-13~~-16~~-12~~~~-13~~-10~~~~~~-15~~-16~~~~-|
 |--------------------------------------------------------------------|
 |--------------------------------------------------------------------|
 |--------------------------------------------------------------------|
 |--------------------------------------------------------------------|

--VERSE
 
 |------------------------------------------------------------------------------------------|
 |------------------------------------------------------------------------------------------|
 |------------------------------------------------------------------------------------------|
 |------------------------------------------------------------------------------------------|
 |------------------------------------------------------------------------------------------|
 |-0h8-8-8-0h8-8-8-0h8-8-0h7-7-7-0h7-7-7-0h10-10-0h8-8-8-0h8-8-8-0h8-8-0h7-7-7-0h10-10--/\--|

--PRECHORUS
 
 |------------------------------------------------------------------------------------------|
 |------------------------------------------------------------------------------------------|
 |------------------------------------------------------------------------------------------|
 |------------------------------------------------------------------------------------------|
 |------------------------------------------------------------------------------------------|
 |-0h8-8-8-0h8-8-8-0h8-8-0h7-7-7-0h7-7-7-0h10-10-0h8-8-8-0h8-8-8-0h8-8-0h7-7-7-0h10-10--/\--|

--CHORUS
 
 |---------------------------------------------------|
 |---------------------------------------------------|
 |------4---------------------------------------4----|
 |-5----4----------------------------------5----4----|
 |-5----2----------------------------------5----2----|
 |-3---------0h12-12-12-0h12-12-12-0h12-12-3---------|
 -------------------------------------------------------------------------------------|
 -------------------------------------------------------------------------------------|
 --------------------------------------------------------------------------------4----|
 ---------------------------------------------------------------------------5----4----|
 ---------------------------------------------------------------------------5----2----|
 -0h12-12-12-0h12-12-12-0h12-12-0h8-8-8-0h8-8-8-0h8-8-0h5-5-5-0h5-5-5-0h5-5-3---------|
 -----------------------------------------------------|
 -----------------------------------------------------|
 -----------------------------------------------------|
 -----------------------------------------------------|
 -----------------------------------------------------|
 -0h12-12-12-0h12-12-12-0h12-12-0h8-8-8-0h8-8-8-0h8-8-|

Lead fill
 
 |-------12b14r12-11~~-12~~\--|
 |-10/12----------------------|
 |----------------------------|
 |----------------------------|
 |----------------------------|
 |----------------------------|

Guitar 1
 
 |---------------|
 |---------------|
 |---------4-----|
 |--5------4-----|
 |--5------2-----|
 |--3------------|

|Guitar 2
 
 |---------------|
 |---------------|
 |-/12----/11----|
 |---------------|
 |---------------|
 |---------------|

--SOLO
 
 |---------------------------------------------|
 |---------------------------------------------|
 |---------------------------------------------|
 |-----5-5-----5-5-----5-----4-4-----3-3--2----|
 |-----5-5-----5-5-----5-----4-4-----3-3--2----|
 |-0h3-3-3-0h3-3-3-0h3-3-0h2-2-2-0h1-1-1--0----|

--Lead
 
 |------------------------------------------------------------------|
 |-/12-11~~~~-10~~-8-10~~~~gb12--/12-11~~-10~~--8-10b11r10p8\5~~~~~-|
 |------------------------------------------------------------------|
 |------------------------------------------------------------------|
 |------------------------------------------------------------------|
 |------------------------------------------------------------------|
 -18~~~~-18h19p18\17--17h18p17\16--16h17p16\15--|
 -----------------------------------------------|
 -----------------------------------------------|
 -----------------------------------------------|
 -----------------------------------------------|
 -----------------------------------------------|

Lead 2
 
 |-------------------------------------------------------------------|
 |-------------------------------/15-14~~-13~~-11-13b14r13p11\8~~~~--|
 |-------------------------------------------------------------------|
 |-------------------------------------------------------------------|
 |-------------------------------------------------------------------|
 |-------------------------------------------------------------------|
 -21~~~~-21h22p21\20--20h21p20\19--19h20p19\18--|
 -----------------------------------------------|
 -----------------------------------------------|
 -----------------------------------------------|
 -----------------------------------------------|
 -----------------------------------------------|

--BRIDGE
 
 |----------------------------------------------------------|
 |----------------------------------------------------------|
 |----------------------------------------------------------|
 |----------------------------------------------------------|
 |----------------------------------------------------------|
 |-7--5--7--0--10-7-8--8--5--5--7--5--7--0--10-7-8~~--11~~--|
 |--------------------------------------------------------------|
 |--------------------------------------------------------------|
 |--------------------------------------------------------------|
 |--------------------------------------------------------------|
 |--------------------------------------------------------------|
 |-7--5--7--0--10-7-8--8--5--5--5--3--5--0-8-0--10~~--11~~--4~~-|
 |-------------------------------------------------------------------------------|
 |-------------------------------------------------------------------------------|
 |-------------------------------------------------------------------------------|
 |-7-7--7-7--7-7--7-7--7--7--8-8--8-8--8-8--8-8--8--8--9-9--9-9--9-9--9-9--9--9--|
 |-7-7--7-7--7-7--7-7--7--7--8-8--8-8--8-8--8-8--8--8--9-9--9-9--9-9--9-9--9--9--|
 |-5-5--5-5--5-5--5-5--5--5--6-6--6-6--6-6--6-6--6--6--7-7--7-7--7-7--7-7--7--7--|

Lead
 
 |-----------------------------------------------------------------------------|
 |-12~~~~-13~~-10~~-12~~~~-13~~-16~~-12~~~~-13~~-10~~~~~~-15~~-16~~-9~~-10~~~~-|
 |-----------------------------------------------------------------------------|
 |-----------------------------------------------------------------------------|
 |-----------------------------------------------------------------------------|
 |-----------------------------------------------------------------------------|

--VERSE
 
 |------------------------------------------------------------------------------------------|
 |------------------------------------------------------------------------------------------|
 |------------------------------------------------------------------------------------------|
 |------------------------------------------------------------------------------------------|
 |------------------------------------------------------------------------------------------|
 |-0h8-8-8-0h8-8-8-0h8-8-0h7-7-7-0h7-7-7-0h10-10-0h8-8-8-0h8-8-8-0h8-8-0h7-7-7-0h10-10--/\--|

Lead - Play with whammy set to 2 octaves higher
 
 |-12~~~~~~--11~~~~~~\--12~~~~-12b14r12-11~~~~~~\--|
 |-------------------------------------------------|
 |-------------------------------------------------|
 |-------------------------------------------------|
 |-------------------------------------------------|
 |-------------------------------------------------|

--PRECHORUS
 
 |------------------------------------------------------------------------------------------|
 |------------------------------------------------------------------------------------------|
 |------------------------------------------------------------------------------------------|
 |------------------------------------------------------------------------------------------|
 |------------------------------------------------------------------------------------------|
 |-0h8-8-8-0h8-8-8-0h8-8-0h7-7-7-0h7-7-7-0h10-10-0h8-8-8-0h8-8-8-0h8-8-0h7-7-7-0h10-10--/\--|

--CHORUS
 
 |---------------------------------------------------------------------------------|
 |---------------------------------------------------------------------------------|
 |------4---------------------------------------4----------------------------------|
 |-5----4----------------------------------5----4----------------------------------|
 |-5----2----------------------------------5----2----------------------------------|
 |-3---------0h12-12-12-0h12-12-12-0h12-12-3---------0h12-12-12-0h12-12-12-0h12-12-|

Lead fill
|-12b14r12-11~~\--|
 
 |-----------------|
 |-----------------|
 |-----------------|
 |-----------------|
 |-----------------|

Guitar 1
 
 |---------------|
 |---------------|
 |---------4-----|
 |--5------4-----|
 |--5------2-----|
 |--3------------|

|Guitar 2
 
 |---------------|
 |---------------|
 |-/12----/11----|
 |---------------|
 |---------------|
 |---------------|

b - bend
r - release
gb - gradual bend
gr - gradual release
h - hammer on
p - pull off
T - trill
W - whammy bar dive
\ - slide down
/ - slide up
x - mute
X\ - pick slide
~~~ - vibrato
*7 - artificial harmonic
*7* - natural harmonic
... - palm mute
(0) - optional note
XXX - tremolo pick
alt - variation of riff
************************************************************
 
 ------------------------------------------------------------

Track 3: Bleeding The Orchid
 
 ------------------------------------------------------------

--title: bleeding the orchid
--release: zeitgeist
--last updated: 08.19.07
--transcription by: bgoold@gmail.com
--website: http://www.0bscured.com
--tuning: Db Gb B E Ab Db
--INTRO
 
 |-0----0----0----0----|
 |-0----0----3----0----|
 |-8----4----2----0----|
 |-9----5----4----2----|
 |-9----5----4----2----|
 |-7----3---(2)---0----|

--VERSE
 
 |--------------------------------0-------------------------------------------|
 |-----0--------0--------3--------0------------------3--------2----3----------|
 |-----8--------4--------2--------0------------------4--------2----4----------|
 |-----9--------5------4----------2----------------4--------2------5--4b5r4~~-|
 |---9--------5------4----------2----------------2--------0--------5----------|
 |-7--------3-------(2)-------0-----------------------------------(3)---------|

--PRECHORUS
 
 |-0----0----0----3----|
 |-3----0----2----3----|
 |-2----0----2----0----|
 |-0----2----2----0----|
 |------2----0----2----|
 |------0---------3----|

--CHORUS
 
 |-0----0----0----0----|
 |-0----0----3----0----|
 |-8----4----2----0----|
 |-9----5----4----2----|
 |-9----5----4----2----|
 |-7----3---(2)---0----|

--SOLO
 
 |-0----0----0----0----|
 |-0----0----3----0----|
 |-8----4----2----0----|
 |-9----5----4----2----|
 |-9----5----4----2----|
 |-7----3---(2)---0----|

Lead
 
 |--------------------------------------------------------------------------|
 |--------------------------------------------------------------------------|
 |--------------------------------------------------------------------------|
 |--------------------------------------------------------------------------|
 |-/7h9~~--/9h10~~--/10h12~~--10h12/14~~----/7h9~~--/9h10~~--/10h12~~--10h1-|
 |--------------------------------------------------------------------------|
 -------------------------|
 -------------------------|
 -------------------------|
 -------------------------|

/14~~b15r14~~b15r14~~~~--|
 
 -------------------------|

--VERSE
 
 |--------------------------------0------0-----------------0--------------|
 |-----0--------0--------3-----------------0--------0--------0------------|
 |---8--------4--------2--------5-----------------7-----------------------|
 |-9--------5--------4--------7-----------------9--------7----------------|
 |-------------------------------------7----------------------------------|
 |------------------------------------------------------------------------|

--PRECHORUS
 
 |-0----0----0----3----|
 |-3----0----2----3----|
 |-2----0----2----0----|
 |-0----2----2----0----|
 |------2----0----2----|
 |------0---------3----|

--CHORUS
 
 |-0----0----0----0----|
 |-0----0----3----0----|
 |-8----4----2----0----|
 |-9----5----4----2----|
 |-9----5----4----2----|
 |-7----3---(2)---0----|

Lead
 
 |------------------------------------------|
 |------------------------------------------|
 |------------------------------------------|
 |------------------------------------------|
 |-/7h9~~--/9h10~~--/10h12~~--10h12/14~~----|
 |------------------------------------------|

--INTERLUDE
 
 |-0----0----0-----0-----0----------------|
 |-0----0----0-----0-----0----------------|
 |-2----0----11----9-----2----------------|
 |-4----2----12----10----4----------------|
 |-4----2----12----10----4----------------|
 |(2)---0----10----8----(2)---------------|

--CHORUS
 
 |-0----0----0----0----|
 |-0----0----0----0----|
 |-8----0----4----0----|
 |-9----2----5----2----|
 |-9----2----5----2----|
 |-7----0----3----0----|

--SOLO
 
 |-0----0----0----0-----|
 |-0----0----0----0-----|
 |-4----0----8----11----|
 |-5----2----9----12----|
 |-5----2----9----12----|
 |-3----0----7----10----|

Lead
 
 |------------17b19~~~~-17b19-17b19-17b19-17b19~~~~~~~~--------------------------------|
 |-17b19~~~~----------------------------------------------------------------17gb19~~---|
 |-------------------------------------------------------16p14~~~~--14h16~~------------|
 |-------------------------------------------------------------------------------------|
 |-------------------------------------------------------------------------------------|
 |-----------------------------------------------------------------------------------\-|
 --------------------------------------------------------------------------------------|
 -----------------------------------------------------------------------15b17gr15~~~~--|
 -14h16~~p14h16~~p14h16~~p14h16~~p14h16~~p14h16~~p14h16~~p14h16~~p14h16-----------------|
 --------------------------------------------------------------------------------------|
 --------------------------------------------------------------------------------------|
 --------------------------------------------------------------------------------------|
 -----------14p12p10-------------------------------------------------------------------|
 -17b19~~~~----------14p12p10----------------------------------------------------------|
 -----------------------------14p12----------------------------------------------------|
 -----------------------------------14/16~~--------------------------------------------|
 --------------------------------------------14b17r14~~-12h14p12\8~~~~gb9~~~~----------|
 ---------------------------------------------------------------------------------------|

b - bend
r - release
gb - gradual bend
gr - gradual release
h - hammer on
p - pull off
T - trill
W - whammy bar dive
\ - slide down
/ - slide up
x - mute
X\ - pick slide
~~~ - vibrato
*7 - artificial harmonic
*7* - natural harmonic
... - palm mute
(0) - optional note
XXX - tremolo pick
alt - variation of riff
************************************************************
 
 ------------------------------------------------------------

Track 4: That's The Way (My Love Is)
 
 ------------------------------------------------------------

Smashing Pumpkins
That?s The Way (My Love Is)
Zeitgeist
Standard Tuning (not Eb)
I tabbed this to be played on acoustic, so the chords are the exact electric ones
played on the CD.
Capo 2
Intro: G D/F#
[G]they say that [D/F#]life ain't easy
[G]they'll say yo[D/F#]ur life's a [Bm]crime
[Em]destroy up [D/F#]all good reason
how i[G]'m alive
[G]they'll say th[D/F#]at nothing matters
[G]not even your [D/F#]will to surv[Bm]ive
[Em]of course i[D/F#] love you baby
'cause [G]i'm alive[D/F#] [Bm]
yes[G], i'm alive
whenever i [Asus]call you o[Em]ut
whenever i [Asus]draw you r[Em]ound
whenever is[Asus] here and [G]now[D/F#] [Bm]
that's the[G] wa[D/F#]y my lo[Bm]ve is
that's the[G] wa[D/F#]y i car[Bm]e
you should[G] call [Asus]on me [Bm]baby[D/F#]
i'm [G]always t[D/F#]here for [Bm]you
yeah, i'm [G]always th[D/F#]ere for y[Bm]ou
[D/F#]they'll say you'll lose your nerve soon
[Em]to claim identity
[Bm]disgrace our sacred[D/F#] promise
with [G]no be[D/F#]lief[Bm]
oh, h[G]ow i [D/F#]believe [Bm]in you
[Em7]Ahhhh, a[D/F#]hhhhh that's th[Asus]e way my[Bm] love is, for [Em]you[D/F#]
that's the[Asus] way my l[Bm]ove is, for you![G] [D/F#] [Bm]
Solo (over chorus chords)
 
 |----------------------------------------|
 |-5/12~-----------5/12-12-12--14---------|
 |-------13-14-13\-----------------13~~~/-|
 |----------------------------------------|
 |----------------------------------------|
 |----------------------------------------|
 |-----------------------------------------------------------------|
 |12x6-14--------------------------------------------------14\12~~~|
 |--------13--11--9---11\13-?11--14--13-9--11\13?11----------------|
 |---------------------------------------------------11~~~---------|
 |-----------------------------------------------------------------|
 |-----------------------------------------------------------------|

[D/F#]i feel a com[Em]ing age [Bm]now
[D/F#]i feel a d[Em]awn in m[Bm]e
[G]a certain[D/F#] sun keeps [Bm]rising[Asus]
[G]on my[D/F#] belief i[Bm]n you
that's the[G] wa[D/F#]y my lo[Bm]ve is
that's the[G] wa[D/F#]y i car[Bm]e
you should[G] call [Asus]on me [Bm]baby[D/F#]
i'm [G]always t[D/F#]here for [Bm]you
that's the[G] wa[D/F#]y my lo[Bm]ve is
that's the[G] wa[D/F#]y i car[Bm]e
you should[G] call [Asus]on me [Bm]baby[D/F#]
i'm [G]always t[D/F#]here for [Bm]you
yeah, i'm [G]always th[D/F#]ere for y[Bm]ou
************************************************************
 
 ------------------------------------------------------------

Track 5: Tarantula
 
 ------------------------------------------------------------

Tabbed by: Chad Corgan (www.myspace.com/soapyrecords :D)
Email: sld.potato@gmail.com
Tuning: 1/2 step down (Bet you didn't see that coming!)
INTRO (0:00)
 
 Eb|--------|
 Bb|--------|
 Gb|--------|

Db|--2~~~--| Easy!
Ab|--2~~~--|
Eb|--0~~~--|
After that, one guitar plays the low Eb string (open) over and over
for sixteen measures. A second guitar plays natural harmonics starting
at the twelth fret and slides all the way down, then back up again
for all sixteen measures.
VERSE (0:16)
 
 Eb|--------------------------------------------------------------------------|
 Bb|--------------------------------------------------------------------------|
 Gb|--------------------------------------------------------------------------|
 Db|--------------------------------------------------------------------------|
 Ab|--2--2--2--2--2--2--2--2--2--2--2--2--5--5--5--5--5--5//10-10-10-10-10-10-|
 Eb|--0--0--0--0--0--0--0--0--0--0--0--0--3--3--3--3--3--3//8--8--8--8--8--8--|

A lot of tabs I've seen show the Cb5 chord erroniously played on the Ab
string. If you listen to the recording carefully, you can hear the slide.
This makes the song oddly similar to Doomsday Clock. (Shrug). This whole
song is composed almost entirely of triplets, thus why most of the chords are
played in multiples of three.
 
 Eb|--------------------------------------------------------------------------|
 Bb|--------------------------------------------------------------------------|
 Gb|--------------------------------------------------------------------------|
 Db|--------------------------------------------------------------------------|
 Ab|--2--2--2--2--2--2--2--2--2--2--2--2--5--5--5--5--5--5//10-10-10-10-10-10-|
 Eb|--0--0--0--0--0--0--0--0--0--0--0--0--3--3--3--3--3--3//8--8--8--8--8--8--|

PRECHORUS (0:40)
 
 Eb|--------------------------------------------------------|
 Bb|--------------------------------------------------------|
 Gb|--------------------------------------------------------|
 Db|--4--4--4--4--4--4//7--7--7--7--7--7\\5--5--5--5--5--5--|
 Ab|--0--2--2--0--2--2//0--5--5--0--5--5\\3--3--3--0--3--3--|
 Eb|--------------------------------------------------------|
 Eb|--------------------------------------|
 Bb|--------------------------------------| It looks really weird, but I'm
 Gb|--------------------------------------| pretty sure that's what's going
 Db|--------------------4--4--4//7--7--7--| on here. Just listen to the
 Ab|--7--7--7--7--7--7--2--2--2//5--5--5--| song closely and you'll hear it.
 Eb|--0--5--5--0--5--5--------------------|

CHORUS (0:48)
 
 Eb|----------------------------------------------------------------------------|
 Bb|------------------------------------------------------------------------------|
 Gb|------------------------------------------------------------------------------|
 Db|------------------------------------------------------------------------------|
 Ab|--5--5--5--5--5--5--5--5--5--5--5--5--4--4--4--4--4--4--4--4--4--4--4--4------|
 Eb|--3--3--3--3--3--3--3--3--3--3--3--3--2--2--2--2--2--2--2--2--2--2--2--2------|
 Eb|----------------------------------------------------------------------------|
 Bb|------------------------------------------------------------------------------|
 Gb|------------------------------------------------------------------------------|
 Db|--9--9--9--9--9--9--9--9--9--9--9--9--9--9--9--9--9--9--9--9--9--9--9--9------|
 Ab|--7--7--7--7--7--7--7--7--7--7--7--7--7--7--7--7--7--7--7--7--7--7--7--7------|
 Eb|--0--0--0--0--0--0--0--0--0--0--0--0--0--0--0--0--0--0--0--0--0--0--0--0------|
 Eb|----------------------------------------------------------------------------|
 Bb|------------------------------------------------------------------------------|
 Gb|------------------------------------------------------------------------------|
 Db|------------------------------------------------------------------------------|
 Ab|-10-10-10-10-10-10-10-10-10-10-10-10--9--9--9--9--9--9--9--9--9--9--9--9------|
 Eb|--8--8--8--8--8--8--8--8--8--8--8--8--7--7--7--7--7--7--7--7--7--7--7--7------|
 Eb|----------------------------------------------------------------------------|
 Bb|------------------------------------------------------------------------------|
 Gb|------------------------------------------------------------------------------|
 Db|------------------------------------------------------------------------------|
 Ab|--7--7--7--7--7--7--7--7--7--7--7--7--7--7--7--7--7--7--7--7--7--7--7--7------|
 Eb|--5--5--5--5--5--5--5--5--5--5--5--5--5--5--5--5--5--5--5--5--5--5--5--5------|
 Eb|----------------------------------------------------------------------------|
 Bb|------------------------------------------------------------------------------|
 Gb|------------------------------------------------------------------------------|
 Db|------------------------------------------------------------------------------|
 Ab|--5--5--5--5--5--5--5--5--5--5--5--5-12-12-12-12-12-12-12-12-12-12-12-12------|
 Eb|--3--3--3--3--3--3--3--3--3--3--3--3-10-10-10-10-10-10-10-10-10-10-10-10------|
 Eb|--------------------------------------|
 Bb|--------------------------------------|
 Gb|--------------------------------------|
 Db|--------------------------------------|
 Ab|--7--7--7--7--7--7--7--7--7--7--7--7--|
 Eb|--5--5--5--5--5--5--5--5--5--5--5--5--|

It's amazing how off some of the tabs were for the chorus. There's
also a second guitar playing clean in the backgroud, but it's too quiet
to make out and be worth tabbing.
POST-CHORUS INTERLUDE BRIDGE THING (1:04)
Riff A
 
 Eb|--------------------------------------------------|
 Bb|--------------------------------------------------|
 Gb|--------------------------------------------------|
 Db|--------------------------------------------------|
 Ab|--2--2--2--2--2--2--2--2--5--5--5--5//10-10-10-10-|
 Eb|--0--0--0--0--0--0--0--0--3--3--3--3//8--8--8--8--|

PM . . . . . . . . . . . . . . . .
Riff B
 
 Eb|-------------------------------------------------------------|
 Bb|-------------------------------------------------------------|
 Gb|-------------------------------------------------------------|
 Db|-------------------------------------------------------------|
 Ab|--2--2--2--2--2--2--2--2--5----5--5--5--5//10---10-10-10-10--|
 Eb|--0--0--0--0--0--0--0--0--3----3--3--3--3//8----8--8--8--8---|

PM . . . . . . . .
You play this part in this order:
Riff A
Riff B
Riff A
Riff B
Riff A
Riff A
Play the palm muted parts with only downstrokes.
There's a specific rhythm (That I poorly tabbed) for this part.
Where the rest of the song is mostly "Play-really-fast-and-pretend-
like-you're-paying-triplets" This is a lot more distinct. Listen
to the recording to figure out how to play it exactly. Also, the
last time you play Riff A there's a slight difference at the very
end. Once again, listen for it.
BUILDUP TO THE FIRST SOLO (1:22)
 
 Eb|-----------------------------------|
 Bb|-----------------------------------|
 Gb|-----------------------------------|
 Db|--4--4//7--7--7//8--8--8//9--9--9--|
 Ab|--2--2//5--5--5//6--6--6//7--7--7--|
 Eb|-----------------------------------|
 Eb|--------------------------------------|
 Bb|--------------------------------------|
 Gb|--------------------------------------| I'm not sure what Billy's
 Db|--------------------------------------| playing here, but this
 Ab|--5--5--5--5--5--5--5--5--5--5--5--5--| sounds good enough.
 Eb|--3--3--3--3--3--3--3--3--3--3--3--3--|

PM . . . . . . . . . . . .
 
 Eb|-----------------------------------|
 Bb|-----------------------------------|
 Gb|-----------------------------------|
 Db|-----------------------------------|
 Ab|--4--4//7--7--7//8--8--8//9--9--9--|
 Eb|--2--2//5--5--5//6--6--6//7--7--7--|

Then one guitar plays the low Eb string (again), and the second guitar
plays natural harmonics down from the twelfth fret (again) for two measures.
FIRST GUITAR SOLO (1:33)
Oh, boy. Here we go. First guitar plays the verse riff four times,
and the second guitar does something a little harder.
To make life easy, I broke up all the lead parts in the tab
into phrases. So, yeah, each box is a phrase, not a measure.
 
 Eb|--10/12p0--10/12p0--10/12p0--10/12p0--10/12p0---------|
 Bb|-----------------------------------------------11~~~--|
 Gb|------------------------------------------------------|
 Db|------------------------------------------------------|
 Ab|------------------------------------------------------|
 Eb|------------------------------------------------------|
 Eb|--10/12p0--10/12p0--10/12p0--10/12p0--10/12p0--|
 Bb|-----------------------------------------------|
 Gb|-----------------------------------------------|
 Db|-----------------------------------------------|
 Ab|-----------------------------------------------|
 Eb|-----------------------------------------------|
 Eb|--19--15------15--------------------|
 Bb|----------17------17--15--14--13~~--|
 Gb|------------------------------------|
 Db|------------------------------------|
 Ab|------------------------------------|
 Eb|------------------------------------|
 Eb|---------------------------------8~~--|
 Bb|------10h12------10h12-----8h10--8~~--| Technically it's
 Gb|--12~--------11~--------9~------------| two guitars doing the
 Db|--------------------------------------| solo, but I'm going to
 Ab|--------------------------------------| tab it for only one.
 Eb|--------------------------------------|
 Eb|--------------------------------------------|
 Bb|--10--8--7--8--7-----7----------------------|
 Gb|------------------9-----9--7--9--7----------| This is a bit off, but
 Db|------------------------------------9-------| laziness says it's OK.
 Ab|---------------------------------------7~~--|
 Eb|--------------------------------------------|

There, that wasn't too bad, now was it?
VERSE (1:46) & INTERLUDE
The rhythm guitar for the verse is the same as the begining. For
the interlude, play Riff A four times. There's also a lead bit:
Soloage: (1:57)
 
 Eb|--12--10----------------------------------|
 Bb|----------12--10b11r10--8\5~~----13/15~~--|
 Gb|------------------------------------------|
 Db|------------------------------------------|
 Ab|------------------------------------------|
 Eb|------------------------------------------|

Listen for where all this stuff goes.
PRECHORUS (2:07)
Same as the prechorus in the begining... with a guitar solo.
This is where the lead starts to get really sweet. :D
 
 Eb|--14*--------------------|
 Bb|

Important: The song above is NOT stored on the Chordie server. The original song is hosted at www.guitaretab.com. Chordie works as a search engine and provides on-the-fly formatting. Chordie does not index songs against artists'/composers' will. To remove this song please click here.

Text color:
Chord color:
Chord grids: 
Font size:    
Page size: 

A5 Amadd9 Asus B5 Bb5 Bm C#5 C5 D/F# D5 Dm E5 Em Em7 F5 G G5
Rate #1 of 3 versions

Jango Player

Login - add to songbook

SHARE PAGE  




You need to log in to post comments