Guitar Tabs, Chords and Lyrics
Major upgrade!! After one year development the new version of Chordie is now online! Please give feedback.


A Rush and a Push and the Land Is Ours  The Smiths

Key of F minor
tempo 4/4, 110 bpm
INTRO
[Dm] [A#] [C]  
 
 || ----1---1-----1-----1-|----------------------- ||
 || ----3---3-----3-----3-|----3----3-----3-----5- ||
 ||O----2---2-----2-----2-|----3----3-----3-----5-O||
 ||O-0---------0-----3----|----3----3-----3-----5-O||
 || ------0-3-------------|-1----------1-----3---- ||
 || ----------------------|-------3-1------------- ||

[Dm] [A#] [C] [Dm]  
 
 He------------llo, 

I am the [A#]ghost of trou[C]bled [Dm]Joe
Hung by his [A#]pretty neck[C] some [Dm]eighteen months ago[A#]
I travelled to [C]a [Dm]mystical time [A#]zone
And I missed [C]my [Dm]bed and I soon came [A#]home
VERSE I
[Dm] [A#] [C]  
 
 || ----1---1-----1-----1-|----------------------- ||
 || ----3---3-----3-----3-|----3----3-----3-----5- ||
 ||O----2---2-----2-----2-|----3----3-----3-----5-O||
 ||O-0---------0-----3----|----3----3-----3-----5-O||
 || ------0-3-------------|-1----------1-----3---- ||
 || ----------------------|-------3-1------------- ||

They [C]said "[Dm]there's too much caffine in your [A#]bloodstream"[C]
And a [Dm]lack of real spice in your [A#]life"
I said "leave me [C]al[Dm]one because I'm al[A#]right dad,
[C]Sur[Dm]prised to still be on my [A#]own"[C]
CHORUS I
_____________________ _____
|1. |2.
[D#] [Dm] [Dm7]  
 
 || ----------------------|---------------------- ||-5------------|
 || ---8-8----8-8-(8)-(8)-|---6-6----6-6-(6)-(6)- ||-6------------|
 ||O---8-8----8-8-(8)-(8)-|---7-7----7-7-(7)-(7)-O||-5------------|
 ||O---8-8----8-8-(8)-(8)-|---7-7----7-7-(7)-(7)-O||-7------------|
 || -6------6-------------|-5------5------------- ||-5------------|
 || ----------------------|---------------------- ||-------6---5--|

[D#]Ooh, but don't mentio[Dm]n love
I'd [D#]hate the pain of the strain a[Dm7]gain
VERSE II
[Dm] [A#] [C]  
 
 || ----1---1-----1-----1-|----------------------- ||
 || ----3---3-----3-----3-|----3----3-----3-----5- ||
 ||O----2---2-----2-----2-|----3----3-----3-----5-O||
 ||O-0---------0-----3----|----3----3-----3-----5-O||
 || ------0-3-------------|-1----------1-----3---- ||
 || ----------------------|-------3-1------------- ||

A [Dm]rush and a push and the lan[A#]d that we stand on is[C] ours[Dm]
It has been befor[A#]e, so it shall be [C]ag[Dm]ain
And people who are [A#]uglier than you [C]and [Dm]I
They take what [A#]they need and just [C]leave
CHORUS II
_____________________ _____
|1. |2.
[D#] [Dm] [Dm7]  
 
 || ----------------------|---------------------- ||-5------------|
 || ---8-8----8-8-(8)-(8)-|---6-6----6-6-(6)-(6)- ||-6------------|
 ||O---8-8----8-8-(8)-(8)-|---7-7----7-7-(7)-(7)-O||-5------------|
 ||O---8-8----8-8-(8)-(8)-|---7-7----7-7-(7)-(7)-O||-7------------|
 || -6------6-------------|-5------5------------- ||-5------------|
 || ----------------------|---------------------- ||-------6---5--|

[D#]Ooh, but don't mentio[Dm]n love
I'd [D#]hate the strain of the pain all over a[Dm7]gain
VERSE III
[Dm] [A#] [C]  
 
 || ----1---1-----1-----1-|----------------------- ||
 || ----3---3-----3-----3-|----3----3-----3-----5- ||
 ||O----2---2-----2-----2-|----3----3-----3-----5-O||
 ||O-0---------0-----3----|----3----3-----3-----5-O||
 || ------0-3-------------|-1----------1-----3---- ||
 || ----------------------|-------3-1------------- ||

A [Dm]rush and a push and the lan[A#]d that we stand on is[C] ours[Dm]
It has been befor[A#]e, so why can't it [C]be [Dm]now?
And people who are [A#]weaker than you [C]and [Dm]I
They take what they [A#]want from life[C]
CHORUS III
_____________________ _____
|1. |2.
[D#] [Dm] [Dm7]  
 
 || ----------------------|---------------------- ||-5------------|
 || ---8-8----8-8-(8)-(8)-|---6-6----6-6-(6)-(6)- ||-6------------|
 ||O---8-8----8-8-(8)-(8)-|---7-7----7-7-(7)-(7)-O||-5------------|
 ||O---8-8----8-8-(8)-(8)-|---7-7----7-7-(7)-(7)-O||-7------------|
 || -6------6-------------|-5------5------------- ||-5------------|
 || ----------------------|---------------------- ||-------6---5--|

[D#]Ooh, but don't mentio[Dm]n love
[D#]No, no, don't mention[Dm7] love
VERSE IV
[Dm] [A#] [C]  
 
 || ----1---1-----1-----1-|----------------------- ||
 || ----3---3-----3-----3-|----3----3-----3-----5- ||
 ||O----2---2-----2-----2-|----3----3-----3-----5-O||
 ||O-0---------0-----3----|----3----3-----3-----5-O||
 || ------0-3-------------|-1----------1-----3---- ||
 || ----------------------|-------3-1------------- ||

A [Dm]rush and a push and the lan[A#]d that we stand on is[C] ours[Dm]
You youth may be [A#]gone but you're still a [C]young [Dm]man
So phone me, phone [A#]me
[C]So [Dm]phone me, phone me, phon[A#]e me[C]
OUTRO
[D#] [Dm]  
 
 || ----------------------|------------------ ||
 || ---8-8----8-8-(8)-(8)-|---6-6-6----6-6-6- ||
 ||O---8-8----8-8-(8)-(8)-|---7-7-7----7-7-7-O||
 ||O---8-8----8-8-(8)-(8)-|---7-7-7----7-7-7-O||
 || -6------6-------------|-5--------5------- ||
 || ----------------------|------------------ ||

[D#]Ooh, I think I'm in[Dm] love
[D#]Ooh, I think I'm in[Dm] love
[D#]Ooh, I think I'm in[Dm] love
[D#]Uurrgh, I think I'm in[Dm] love

Important: The song above is NOT stored on the Chordie server. The original song is hosted at www.guitaretab.com. Chordie works as a search engine and provides on-the-fly formatting. Chordie does not index songs against artists'/composers' will. To remove this song please click here.

Text color:
Chord color:
Chord grids: 
Font size:    
Page size: 

A# C D# Dm Dm7
Rate #1 of 4 versions

Login - add to songbook

SHARE PAGE  




You need to log in to post comments