Guitar Tabs, Chords and Lyrics
Server problems seems to be fixed. Chordie has been experiencing problems with songs disappearing. These issues now seems to be fixed, but still verifying the fix. If you find anything strange, please email admin@chordie.com.


Velocity Girl  Snow Patrol

(10) Velocity Girl
intro:
 
 e------------------------------------------------------------|
 b------------------------------------------------------------|
 g--8~--8--8--8--8~--8--8~--8--8~--8--8--8--8~--8--8--8-------|etc
 d------------------------------------------------------------|
 a------------------------------------------------------------|
 e------------------------------------------------------------|

(an upward bend of the string is signified by ~)
[B5] [F#5] [E5] [B5] [F#5] [E5]  
 
 e----------------------------------------------------------------------|
 b----------------------------------------------------------------------|
 g----------------------------------------------------------------------| x2
 d--4--4--4--4------------------------4--4--4--4------------------------|
 a--2--2--2--2-----4--4-----2-----2---2--2--2--2-----4--4-----2-----2---|
 e-----------------2--2-----0-----0------------------2--2-----0-----0---|

enter bass and drums (with fill 1)
fill 1:
[B5] [F#5] [E5] [B5] [F#5] [E5]  
 
 e----------------------------------------------------------------------|
 b----------------------------------------------------------------------|
 g--9^8--8--8--8^6--6--6^4------1-----9^8--8--8--8^6--6--6^4------1-----| x4
 d----------------------------------------------------------------------|
 a----------------------------------------------------------------------|
 e----------------------------------------------------------------------|

verse 1:
[B5]oh velocity g[F#5]irl [E5] what m[B5]akes you go so[F#5] fast[E5]
[B5]is it he spee[F#5]d you[E5]'re takin[B5]g since you ga[F#5]ve up[E5] the drinking
[B5]oh velocity g[F#5]irl [E5] i can'[B5]t keep up with[F#5] you[E5]
[B5]can't stand t[F#5]o be [E5]alone t[B5]hink you shoul[F#5]d be [E5]with me
chorus:
[D5/A] [C#5/G#] [D5/A] [C#5/G#]  
 
 e-----------------------------------------------------------------|
 b-----------------------------------------------------------------|
 g------7------------6-----------------7------------6--------------|
 d------7------------6-----------------7------------6--------------|
 a------5------------4-----------------5------------4--------------|
 e------5------------4-----------------5------------4--------------|

hmm hmm hmm hmm hmm hmm
[F#5]just want to stay here in[A5] your arms
[B5] [F#5] [E5] [B5] [F#5] [E5]  
 
 e----------------------------------------------------------------------|
 b----------------------------------------------------------------------|
 g----------------------------------------------------------------------|
 d--4--4--4--4------------------------4--4--4--4------------------------|
 a--2--2--2--2-----4--4-----2-----2---2--2--2--2-----4--4-----2-----2---|
 e-----------------2--2-----0-----0------------------2--2-----0-----0---|

verse 2:
[B5]oh velocity g[F#5]irl [E5] tr[B5]y harder to st[F#5]ay pu[E5]t
[B5]understand me[F#5] when[E5] i say pl[B5]ease don't lea[F#5]ve to[E5]day
[B5]oh velocity g[F#5]irl [E5] i [B5]don't know wha[F#5]t i'm[E5] thinking
[B5]since i gave [F#5]up th[E5]e drinkin[B5]g please j[F#5]ust s[E5]tay with me
chorus:
[D5/A] [C#5/G#] [D5/A] [C#5/G#]  
 
 e-----------------------------------------------------------------|
 b-----------------------------------------------------------------|
 g------7------------6-----------------7------------6--------------|
 d------7------------6-----------------7------------6--------------|
 a------5------------4-----------------5------------4--------------|
 e------5------------4-----------------5------------4--------------|

hmm hmm hmm hmm hmm hmm
[F#5]just want to stay here in[A5] your arms
[B5] [F#5] [E5] [B5] [F#5] [E5]  
 
 e----------------------------------------------------------------------|
 b----------------------------------------------------------------------|
 g----------------------------------------------------------------------|
 d--4--4--4--4------------------------4--4--4--4------------------------|
 a--2--2--2--2-----4--4-----2-----2---2--2--2--2-----4--4-----2-----2---|
 e-----------------2--2-----0-----0------------------2--2-----0-----0---|
 e------------------------------------(12)----(5)----(2)----(0)---------|
 b-----------------------------------------------------------------(4)--|
 g----------------------------------------------------------------------|
 d----------------------------------------------------------------------|
 a----------------------------------------------------------------------|
 e----------------------------------------------------------------------|

()=artificial harmonics
verse 3:
[B5]oh velocity g[F#5]irl [E5] ca[B5]n i touch your[F#5] hand[E5]
[B5]can i move it[F#5] here[E5] do[B5]n't you unders[F#5]tand[E5]
chorus:
[D5/A] [C#5/G#] [D5/A] [C#5/G#]  
 
 e-----------------------------------------------------------------|
 b-----------------------------------------------------------------|
 g------7------------6-----------------7------------6--------------| x2
 d------7------------6-----------------7------------6--------------|
 a------5------------4-----------------5------------4--------------|
 e------5------------4-----------------5------------4--------------|

hmm hmm hmm hmm hmm hmm
[F#5]i'll just stay here in yo[A5]ur arms
[F#5]i'll just stay here in yo[A5]ur arms
[F#5]i'll just stay here in yo[A5]ur arms
[F#5]i'll just stay here......[A5]
[B5] [F#5] [E5] [B5] [F#5] [E5]  
 
 e----------------------------------------------------------------------|
 b----------------------------------------------------------------------|
 g----------------------------------------------------------------------|
 d--4--4--4--4------------------------4--4--4--4------------------------|
 a--2--2--2--2-----4--4-----2-----2---2--2--2--2-----4--4-----2-----2---|
 e-----------------2--2-----0-----0------------------2--2-----0-----0---|

[B5] [F#5] [E5] [B5] [F#5] [A(add] [D)]  
 
 e-----------------------------------------------------------0----------|
 b-----------------------------------------------------------3----------|
 g-----------------------------------------------------------2----------|
 d--4--4--4--4------------------------4--4--4--4-------------2----------|
 a--2--2--2--2-----4--4-----2-----2---2--2--2--2-----4--4----0----------|
 e-----------------2--2-----0-----0------------------2--2---------------|

A5 = 57xxxx
TRANSCRIBED BY ROSS MURDOCH

Important: The song above is NOT stored on the Chordie server. The original song is hosted at www.guitaretab.com. Chordie works as a search engine and provides on-the-fly formatting. Chordie does not index songs against artists'/composers' will. To remove this song please click here.

Text color:
Chord color:
Chord grids: 
Font size:    
Page size: 

A5 B5 C#5/G# D5/A E5 F#5
Rate #1 of 3 versions

Jango Player

Login - add to songbook

SHARE PAGE  



You need to log in to post comments