Guitar Tabs, Chords and Lyrics
Login is temporarily disabled for some users. Do not panic. Will be back in an hour or two. DO NOT REREGISTER!!


My Land  Sonata Arctica

MY LAND (Acoustic) ~ Sonata Arctica
Acoustic Arrangement by sinForge xJp
Standard Eb Tuning.. (1/2 step down)
This is "semi-based" on the acoustic performance w/ Tony
and Jani.. but you can only SEE so much of the guitar, so
I used the tonality heard in that performance, plus what
I already know about playing this song. ~Enjoy!!
*Dadd4 = x54030 (C moved up 2 frets)
::INTRO::
 
 eb|-------------------------------------0---|-
 Bb|-------3---------------------3-----------|-
 Gb|-----------0---------------0-----0-------|-
 Db|-----4-------4-----------4---------4-----|-
 Ab|---2---------------2---3-----------------|-
 Eb|-0---------------------------------------|- x2

Em.. C.. Em.. C..
[Em]My own land has closed its [C]gates on me..
[Em]All alone in world, it's [C]scaring me.[Dadd4].[C]
I am here to prove you [Em]wrong!![C]
I'm accused of something I [Dsus4]live.. [D]for..
In [Em]my dreamland, there's one who [C]understands;
A [Em]friendly soul, trusting life [C]in your hands..
[Dadd4] [C] [Em] [C]  
 
 eb|---0---0----------------------0--------------0--|-
 Bb|--/3---1----------------------0--------------1--|-
 Gb|---0---0----------------------0----0---------0--|-
 Db|--/4---2----------------------2-------4------2--|-
 Ab|--/5---3----------------------2----------2---3--|-
 Eb|------------------------------0-----------------|- 

..Yes, I gave it all I can!!
Now it's invaded by a [Daus4]stran-[D]ger..
[Em]Keep in mind what you have [C]heard today,
[Em]You might find that you are [C]not so brave
[Am]Are you man e[B]nough, carry the [Em]load [D]all [C]alone
 
 Am B |Eb|-8-7-5-7-3-5-2-3-| 

When others have your own
 
 eb|--0---2---3--------------------|-
 Bb|--0---3---3---1-0--------------|-
 Gb|--0---2---0-------2-0----------|-
 Db|--2---0---0-----------4-2-1----|-
 Ab|--2-------x-----------------3--|-
 Eb|--0-------3--------------------|-
 eb|--0---2---3------------------------------------|-
 Bb|--0---3---3---1-0---0--------------------------|-
 Gb|--0---2---0-------2---0-2---0------------------|-
 Db|--2---0---0---------------4--------------------|-
 Ab|--2-------x------------------------------------|-
 Eb|--0-------3-------------------8-7-5-7-3-5-2-3--|-

Em.. C... Em.. C...
Gm.. Eb.. Gm.. Eb..
[Em]My old land is but a [C]pile of sand..
[Em]Cold and bare but something [C]still is there.[Dadd4].[C]
Yes, I gave it all I [Em]can..[C]
Now it's invaded by a [Dsus4]stran-[D]ger..
[Em]Keep in mind what you have [C]heard today,
[Em]You might find that you are [C]not so brave
[Am]Are you man e[B]nough, carry the [Em]load [D]all [C]alone
 
 Am B |Eb|-8-7-5-7-3-5-2-3-| 

When others have your own
Em.. C.. Em.. C..
[F]I'm a true patriot, you have my land
[F]you have my soul, you have all I [Em]had..
F Em.. Am G D/F#..
Now I am here, and I want it all back
[Em]In my dreams, I climb the [C]hills I see, and let a
[Am]Gentle breeze lead me to plains I [F]once have seen and
[Em]Clear blue sky, I swim in [C]lakes I find
I build a [Am]house right there that you can't [Bb]take, never [C]take [Dm]away!!
(Dm).. Bb.. Dm.. F.. C..
[(Bb)]I am here to claim my [Dm]land!![C]
[(Bb)]You can't keep me a[C]way, [D]forever
[Gm]Keep in mind what you have [Eb]heard today,
[Gm]You might find that you are [Eb]not so brave..
[Cm]Are you man e[D]nough, carry the [Gm]load [F]all [Eb]alone
 
 Cm D |Ab|-6-5-3-5-1-3-0-1-|

When others have your own
[Cm]Are you man e[D]nough, carry the [Gm]load [F]all [Eb]alone
 
 Cm D |Ab|-6-5-3-5-1-3-0-1-| x3 Gm

When others have your own

Important: The song above is NOT stored on the Chordie server. The original song is hosted at www.guitaretab.com. Chordie works as a search engine and provides on-the-fly formatting. Chordie does not index songs against artists'/composers' will. To remove this song please click here.

Text color:
Chord color:
Chord grids: 
Font size:    
Page size: 

Am B Bb C Cm D Dadd4 Dm Dsus4 Eb Em F Gm
Rate #1 of 5 versions

Jango Player

Login - add to songbook

SHARE PAGE  



You need to log in to post comments