Guitar Tabs, Chords and Lyrics
Server problems seems to be fixed. Chordie has been experiencing problems with songs disappearing. These issues now seems to be fixed, but still verifying the fix. If you find anything strange, please email admin@chordie.com.


Fullmoon  Sonata Arctica

Fullmoon
Sonata Arctica
(Tuning: Half-Step down to Eb)
(Keybord Intro)
(Not done by Sonata Arctica but you can strum these chords with clean sound to the singing.)
[Em] Sitting in a corner all alone[D],
staring from the bottom of his soul,[C]
watching the night come in from the window, window[G] [D]
[Em] It'll all collapse tonight,
[D] the fullmoon is here again
 
 Eb ||-------------------------------------------------------------------||
 Bb ||-------------------------------------------------------------------||
 Gb ||-------------------------------------------------------------------||
 Db ||-6---8/-6-------8/-6---PM-------------------------8/-6----8--------||
 Ab ||-4-6-6/-4-3/-6-6/-4-3-2------------------------3-6/-4-6-6----------||
 Eb ||----4------1/-4--------1-0-0-0-0-0-0-0-0-0-0-1-------4-------------||

(Verse)
 
 Eb ||---------------------------------------------------------------------------||
 Bb ||---------------------------------------------------------------------------||
 Gb ||---------------------------------------------------------------------------||
 Db ||---------------------------------8----8----8----8----8----8---6-6-6--6-6-6-||
 Ab ||-3----3----3----3----3----3---6-6-6-6-6-6-6-6-6-6-6-6-6-4-4-4--4-4-4-------||
 Eb ||-1-1-1-1-1-1-1-1-1-1-1-1-1-------------------------------------------------||
 Eb ||------------------------------------------------------------------------------------||
 Bb ||------------------------------------------------------------------------------------||
 Gb ||------------------------------------------------------------------------------------||
 Db ||-6-8---------------------------------8----8----8----8----8----8---6-6-6--6-6-6--6-8-||
 Ab ||-6-6-3----3----3----3----3----3---6-6-6-6-6-6-6-6-6-6-6-6-6-4-4-4--4-4-4--6-6-------||
 Eb ||-4---1-1-1-1-1-1-1-1-1-1-1-1-1--------------------------------------------------4---||
 Eb ||--------------------------------------------||
 Bb ||--------------------------------------------||
 Gb ||--------------------------------------------||
 Db ||-6-------8/-6-------------------------------||
 Ab ||-4-3/-6-6/-4-3-2----------------------------||
 Eb ||----1/-4------1-0-0-0-0-0-0-0-0-0-0---------||

(Chorus)
 
 Eb ||---------------------------------------------------||
 Bb ||---------------------------------------------------||
 Gb ||---------------------------------------------------||
 Db ||----6---8---6---8----6----8---6--------------------||
 Ab ||-3-4-6-6-3-4-6-6-3-4-6-6-3-4-8-2-------------------||
 Eb ||-1----4---1----4---1----4---1---6-0-0-0-0-0--------||

Sorry No Solo but please leave a comment. Thanks!

Important: The song above is NOT stored on the Chordie server. The original song is hosted at www.guitaretab.com. Chordie works as a search engine and provides on-the-fly formatting. Chordie does not index songs against artists'/composers' will. To remove this song please click here.

Text color:
Chord color:
Chord grids: 
Font size:    
Page size: 

C D Em G
Rate #1 of 6 versions

Jango Player

Login - add to songbook

SHARE PAGE  




You need to log in to post comments