Guitar Tabs, Chords and Lyrics
Server problems seems to be fixed. Chordie has been experiencing problems with songs disappearing. These issues now seems to be fixed, but still verifying the fix. If you find anything strange, please email admin@chordie.com.


Kingdom for a Heart  Sonata Arctica

Kingdom For A Heart
Sonata Arctica
Jani Liimatainen
[E] [E] [E] [E] [E] [E] [E] [E] [E] [E] [E] [E] [E] [E] [E] [E]  
 
 E||--------------------------|--------------------------|
 B||--------------------------|-----------6--7--6--7--9--|
 G||-----------------------5--|--6--5--6-----------------|
 D||--4--3--4--6--7--6--7-----|--------------------------|
 A||--------------------------|--------------------------|
 E||--------------------------|--------------------------|

[E] [E] [E] [E] [E] [E] [E] [E] [E] [E] [E] [E] [E] [E] [E] [E]  
 
 --------------------------|--------------------------|
 --------3--7--3-----------|-----------5--------------|
 --4--6-----------6--4--6--|--2--4--6-----6--4--2--4--|
 --------------------------|--------------------------|
 --------------------------|--------------------------|
 --------------------------|--------------------------|

[E] [E] [E] [E] [E] [E] [E] [E] [E] [E] [E] [E] [E] [E] [E] [E]  
 
 -----------5--------------|-----------7-----4--6--9--|
 -----5--7-----7--5-----5--|--5--7--8-----7-----------|
 --7-----------------7-----|--------------------------|
 --------------------------|--------------------------|
 --------------------------|--------------------------|
 --------------------------|--------------------------|

[E] [E] [E] [E] [E] [E] [E] [E] [E] [E] [E] [E] [E] [E] [E] [E]  
 
 --------------------------|--------------------------|
 --------3--7--3-----------|-----------5--------------|
 --4--6-----------6--4--6--|--2--4--6-----6--4--2--4--|
 --------------------------|--------------------------|
 --------------------------|--------------------------|
 --------------------------|--------------------------|

E E E E E E E E S S E Q E S S Q
 
 -----------5--------------|---------7-------4-6-9----|
 -----5--7-----7--5-----5--|--5-7-8-------7-----------|
 --7-----------------7-----|--------------------------|
 --------------------------|--------------------------|
 --------------------------|--------------------------|
 --------------------------|--------------------------|

PM PM PM PM PM PM
E E E E E E Q Q E E E E E E
 
 --7--6--7--9--10--14--19----|-------------------------|
 ----------------------------|-------------------------|
 ----------------------------|-------------------------|
 ----------------------------|--4----------------------|
 ----------------------------|--2----2--2--2--2--2--2--|
 ----------------------------|-------------------------|

PM PM PM PM PM PM PM PM PM PM PM PM PM PM PM PM PM PM
Q E E E E E E Q E E E E E E Q E E E E E E
 
 -------------------------|-------------------------|-------------------------|
 -------------------------|-------------------------|-------------------------|
 -------------------------|-------------------------|-------------------------|
 -------------------------|--7----------------------|--9----------------------|
 --4----------------------|--5----5--5--5--5--5--5--|--7----7--7--7--7--7--7--|
 --2----2--2--2--2--2--2--|-------------------------|-------------------------|

PM PM PM PM PM PM PM PM PM PM PM PM PM PM PM PM
Q E E E E E E Q E E Q E E Q E E E E E E
 
 -------------------------|------------------------|-------------------------|
 -------------------------|------------------------|-------------------------|
 -------------------------|------------------------|-------------------------|
 -------------------------|--5---------------------|-------------------------|
 --7----------------------|--3----3--3--5----------|--4----------------------|
 --5----5--5--5--5--5--5--|-------------3----3--3--|--2----2--2--2--2--2--2--|

PM PM PM PM PM PM PM PM PM PM PM PM
W Q E E E E E E Q E E E E E E
 
 -------------------|-------------------------|-------------------------|
 -------------------|-------------------------|-------------------------|
 -------------------|-------------------------|-------------------------|
 -------------------|--4----------------------|-------------------------|
 --4----------------|--2----2--2--2--2--2--2--|--4----------------------|
 --2----------------|-------------------------|--2----2--2--2--2--2--2--|

PM PM PM PM PM PM PM PM PM PM PM PM PM PM PM PM PM PM
Q E E E E E E Q E E E E E E Q E E E E E E
 
 -------------------------|-------------------------|-------------------------|
 -------------------------|-------------------------|-------------------------|
 -------------------------|-------------------------|-------------------------|
 --7----------------------|--9----------------------|-------------------------|
 --5----5--5--5--5--5--5--|--7----7--7--7--7--7--7--|--5----------------------|
 -------------------------|-------------------------|--3----3--3--3--3--3--3--|

PM PM PM PM PM PM PM PM PM PM PM PM
Q E E E E E E Q E E E E E E W
 
 -------------------------|-------------------------|-------------------|
 -------------------------|-------------------------|-------------------|
 -------------------------|-------------------------|-------------------|
 --5----------------------|-------------------------|-------------------|
 --3----3--3--3--3--3--3--|--4----------------------|--4----------------|
 -------------------------|--2----2--2--2--3--2--0--|--2----------------|

Q Q H Q H Q W
 
 ---------------------|---------------------|-------------------|
 ---------------------|---------------------|-------------------|
 ------------7--------|--2----4-------------|--2----------------|
 -------5----7--------|--2----4-------------|--2----------------|
 -------5----5--------|--0----2-------------|--0----------------|
 -------3-------------|---------------------|-------------------|

W H H H H
 
 -------------------|--------------------|--------------------|
 -------------------|--------------------|--------------------|
 -------------------|-----------7--------|--2--------4--------|
 --2----------------|--5--------7--------|--2--------4--------|
 --2----------------|--5--------5--------|--0--------2--------|
 --0----------------|--3-----------------|--------------------|

W W E E E E E E E E
 
 -------------------|-------------------|--------------------------|
 -------------------|-------------------|--------3--7--3-----------|
 -------------------|-------------------|--4--6-----------6--4--6--|
 --4----------------|--4----------------|--------------------------|
 --4----------------|--4----------------|--------------------------|
 --2----------------|--2----------------|--------------------------|

[E] [E] [E] [E] [E] [E] [E] [E] [E] [E] [E] [E] [E] [E] [E] [E]  
 
 --------------------------|-----------5--------------|
 -----------5--------------|-----5--7-----7--5-----5--|
 --2--4--6-----6--4--2--4--|--7-----------------7-----|
 --------------------------|--------------------------|
 --------------------------|--------------------------|
 --------------------------|--------------------------|

[E] [E] [E] [E] [E] [E] [E] [E] [E] [E] [E] [E] [E] [E] [E] [E]  
 
 -----------7-----4--6--9--|--------------------------|
 --5--7--8-----7-----------|--------3--7--3-----------|
 --------------------------|--4--6-----------6--4--6--|
 --------------------------|--------------------------|
 --------------------------|--------------------------|
 --------------------------|--------------------------|

[E] [E] [E] [E] [E] [E] [E] [E] [E] [E] [E] [E] [E] [E] [E] [E]  
 
 --------------------------|-----------5--------------|
 -----------5--------------|-----5--7-----7--5-----5--|
 --2--4--6-----6--4--2--4--|--7-----------------7-----|
 --------------------------|--------------------------|
 --------------------------|--------------------------|
 --------------------------|--------------------------|

S S E Q E S S Q E E E E E E Q
 
 ---------7-------4-6-9----|--7--6--7--9--10--14--19----|
 --5-7-8-------7-----------|----------------------------|
 --------------------------|----------------------------|
 --------------------------|----------------------------|
 --------------------------|----------------------------|
 --------------------------|----------------------------|

PM PM PM PM PM PM
E E E E E E E E Q E E E E E E
 
 --19--14--15--12--14--10--12--9--|-------------------------|
 ---------------------------------|-------------------------|
 ---------------------------------|-------------------------|
 ---------------------------------|--4----------------------|
 ---------------------------------|--2----2--2--2--2--2--2--|
 ---------------------------------|-------------------------|

PM PM PM PM PM PM PM PM PM PM PM PM PM PM PM PM PM PM
Q E E E E E E Q E E E E E E Q E E E E E E
 
 -------------------------|-------------------------|-------------------------|
 -------------------------|-------------------------|-------------------------|
 -------------------------|-------------------------|-------------------------|
 -------------------------|--7----------------------|--9----------------------|
 --4----------------------|--5----5--5--5--5--5--5--|--7----7--7--7--7--7--7--|
 --2----2--2--2--2--2--2--|-------------------------|-------------------------|

PM PM PM PM PM PM PM PM PM PM PM PM PM PM PM PM
Q E E E E E E Q E E Q E E Q E E E E E E
 
 -------------------------|------------------------|-------------------------|
 -------------------------|------------------------|-------------------------|
 -------------------------|------------------------|-------------------------|
 -------------------------|--5---------------------|-------------------------|
 --7----------------------|--3----3--3--5----------|--4----------------------|
 --5----5--5--5--5--5--5--|-------------3----3--3--|--2----2--2--2--2--2--2--|

PM PM PM PM PM PM PM PM PM PM PM PM
W Q E E E E E E Q E E E E E E
 
 -------------------|-------------------------|-------------------------|
 -------------------|-------------------------|-------------------------|
 -------------------|-------------------------|-------------------------|
 -------------------|--4----------------------|-------------------------|
 --4----------------|--2----2--2--2--2--2--2--|--4----------------------|
 --2----------------|-------------------------|--2----2--2--2--2--2--2--|

PM PM PM PM PM PM PM PM PM PM PM PM PM PM PM PM PM PM
Q E E E E E E Q E E E E E E Q E E E E E E
 
 -------------------------|-------------------------|-------------------------|
 -------------------------|-------------------------|-------------------------|
 -------------------------|-------------------------|-------------------------|
 --7----------------------|--9----------------------|-------------------------|
 --5----5--5--5--5--5--5--|--7----7--7--7--7--7--7--|--5----------------------|
 -------------------------|-------------------------|--3----3--3--3--3--3--3--|

PM PM PM PM PM PM PM PM PM PM PM PM
Q E E E E E E Q E E E E E E W
 
 -------------------------|-------------------------|-------------------|
 -------------------------|-------------------------|-------------------|
 -------------------------|-------------------------|-------------------|
 --5----------------------|-------------------------|-------------------|
 --3----3--3--3--3--3--3--|--4----------------------|--4----------------|
 -------------------------|--2----2--2--2--3--2--0--|--2----------------|

Q Q H Q H Q W
 
 ---------------------|---------------------|-------------------|
 ---------------------|---------------------|-------------------|
 ------------7--------|--2----4-------------|--2----------------|
 -------5----7--------|--2----4-------------|--2----------------|
 -------5----5--------|--0----2-------------|--0----------------|
 -------3-------------|---------------------|-------------------|

W H H H H
 
 -------------------|--------------------|--------------------|
 -------------------|--------------------|--------------------|
 -------------------|-----------7--------|--2--------4--------|
 --2----------------|--5--------7--------|--2--------4--------|
 --2----------------|--5--------5--------|--0--------2--------|
 --0----------------|--3-----------------|--------------------|

W W W W
 
 -------------------|-------------------|-------------------|-------------------|
 -------------------|-------------------|-------------------|-------------------|
 -------------------|-------------------|--4----------------|-------------------|
 --4----------------|--4----------------|--4----------------|--5----------------|
 --4----------------|--4----------------|--2----------------|--5----------------|
 --2----------------|--2----------------|-------------------|--3----------------|

E E E E E E E E E E E E E E E E W
 
 --------------------------|--------------------------|-------------------|
 --------3--7--3-----------|--------3--7--3-----------|-------------------|
 --4--6-----------6--4--6--|--4--6-----------6--4--6--|--7----------------|
 --------------------------|--------------------------|--7----------------|
 --------------------------|--------------------------|--5----------------|
 --------------------------|--------------------------|-------------------|

W W W W
 
 -------------------|-------------------|-------------------|-------------------|
 -------------------|-------------------|-------------------|-------------------|
 --L----------------|--9----------------|--L----------------|--4----------------|
 --L----------------|--9----------------|--L----------------|--4----------------|
 --L----------------|--7----------------|--L----------------|--2----------------|
 -------------------|-------------------|-------------------|-------------------|

W W W
 
 -------------------|-------------------|-------------------|
 -------------------|-------------------|-------------------|
 -------------------|--2----------------|--9----------------|
 --5----------------|--2----------------|--9----------------|
 --5----------------|--0----------------|--7----------------|
 --3----------------|-------------------|-------------------|

PM PM PM PM PM PM PM PM PM PM PM PM PM PM PM PM PM PM PM PM PM PM
Q E E E E E E E E E E E E E E E E E E E E E E
 
 -------------------------|--------------------------|--------------------------|
 -------------------------|--------------------------|--------------------------|
 -------------------------|--------------------------|--------------------------|
 --5----------------------|--------------------------|--------------------------|
 --5----------------------|--------------------------|--------------------------|
 --3----3--3--3--3--3--3--|--3--3--3--3--3--3--3--3--|--3--3--3--3--3--3--3--3--|

PM PM PM PM PM PM PM PM
[E] [E] [E] [E] [E] [E] [E] [E] [E] [E] [E] [E] [E] [E] [E] [E]  
 
 --------------------------|--------------------------|
 --------------------------|--------3--7--3-----------|
 --------------------------|--4--6-----------6--4--6--|
 --------------------------|--------------------------|
 --------------------------|--------------------------|
 --3--3--3--3--3--3--3--3--|--------------------------|

[E] [E] [E] [E] [E] [E] [E] [E] [E] [E] [E] [E] [E] [E] [E] [E]  
 
 --------------------------|-----------5--------------|
 -----------5--------------|-----5--7-----7--5-----5--|
 --2--4--6-----6--4--2--4--|--7-----------------7-----|
 --------------------------|--------------------------|
 --------------------------|--------------------------|
 --------------------------|--------------------------|

[E] [E] [E] [E] [E] [E] [E] [E] [E] [E] [E] [E] [E] [E] [E] [E]  
 
 -----------7-----4--6--9--|--------------------------|
 --5--7--8-----7-----------|--------3--7--3-----------|
 --------------------------|--4--6-----------6--4--6--|
 --------------------------|--------------------------|
 --------------------------|--------------------------|
 --------------------------|--------------------------|

[E] [E] [E] [E] [E] [E] [E] [E] [E] [E] [E] [E] [E] [E] [E] [E]  
 
 --------------------------|-----------5--------------|
 -----------5--------------|-----5--7-----7--5-----5--|
 --2--4--6-----6--4--2--4--|--7-----------------7-----|
 --------------------------|--------------------------|
 --------------------------|--------------------------|
 --------------------------|--------------------------|

S S E Q E S S Q E E E E E E Q Q
 
 ---------7-------4-6-9----|--7--6--7--9--10--14--19---------|
 --5-7-8-------7-----------|---------------------------------|
 --------------------------|---------------------------------|
 --------------------------|---------------------------------|
 --------------------------|---------------------------------|
 --------------------------|---------------------------------|
 |--3--| |--3--| |--3--| |--3--| |--3--| |--3--| |--3--| |--3--| 

[E] [E] [E] [E] [E] [E] [E] [E] [E] [E] [E] [E] [E] [E] [E] [E] [E] [E] [E] [E] [E] [E] [E] [E]  
 
 --------------------------------------|--------------------------------------|
 --------------------------------------|--------5--7--8--7--5-----------------|
 -----------------------------4--5--7--|--5--7-----------------7--5--4--------|
 -----------2--4--5--4--5--7-----------|--------------------------------7--5--|
 --2--3--5-----------------------------|--------------------------------------|
 --------------------------------------|--------------------------------------|
 |---3---| |---3--| |--3--| |---3--| 

W E E E E E E E E E E E E
 
 --------------------|--14--15--14--12--10--9--7--5--3--12--10--9--|
 --5~----------------|---------------------------------------------|
 --------------------|---------------------------------------------|
 --------------------|---------------------------------------------|
 --------------------|---------------------------------------------|
 --------------------|---------------------------------------------|

|--3--|
E E E H. E E Q E E Q
 
 --7--5--3--7------------|--3-----------3-----------|
 ------------------------|-----5~--L-------5~--L----|
 ------------------------|--------------------------|
 ------------------------|--------------------------|
 ------------------------|--------------------------|
 ------------------------|--------------------------|

W
E E E E E E E E W
 
 -----7--14--15--12--10--7--5--|--L----------------|
 --5---------------------------|-------------------|
 ------------------------------|-------------------|
 ------------------------------|-------------------|
 ------------------------------|-------------------|
 ------------------------------|-------------------|
 |--3--| |--3--| |--3--| |--3--| 

E E E S S S S E E E S S S S E E E S S S S E E E S S S S
 
 -----3--5--9-7-5-3----3--5--9-7-5-3-|-----3--5--9-7-5-3----3--5--9-7-5-3-|
 --5----------------5----------------|--5----------------5----------------|
 ------------------------------------|------------------------------------|
 ------------------------------------|------------------------------------|
 ------------------------------------|------------------------------------|
 ------------------------------------|------------------------------------|
 |--3--| |--3--| 

E E E S S S S S S S S S S S S S S S S S S S S E E E Q
 
 -----3--5--7-10-7-5-7-12-7-5-7-10-7-5-|--7-12-7-5-7-10-7-5-3-------------|
 --5-----------------------------------|-----------------------5--3--5----|
 --------------------------------------|----------------------------------|
 --------------------------------------|----------------------------------|
 --------------------------------------|----------------------------------|
 --------------------------------------|----------------------------------|
 |--3--| |--3--| 

H. E E E E E E H. E E E E E E E E
 
 -------------------------|-------------------------|-----3--5-----------------|
 --L~------------3--5--3--|-------------------------|--7--------3--5--7--------|
 -------------------------|--4--2-------------------|--------------------2--4--|
 -------------------------|--------5--2~------------|--------------------------|
 -------------------------|-------------------------|--------------------------|
 -------------------------|-------------------------|--------------------------|

E E E E E E Q W W
 
 -------------------------|--------------------|-------------------|
 -------------------------|--------------------|-------------------|
 --5----------------------|--------------------|-------------------|
 -----4--5--7--------4----|--5~----------------|--L----------------|
 --------------5--7-------|--------------------|-------------------|
 -------------------------|--------------------|-------------------|

PM PM PM PM PM PM PM PM PM PM PM PM PM PM PM PM PM PM PM PM
Q E E E E E E E E E E E E E E Q E E E E E E
 
 -------------------------|--------------------------|-------------------------|
 -------------------------|--------------------------|-------------------------|
 -------------------------|--------------------------|-------------------------|
 --3----------------------|--------------------------|--3----------------------|
 --3----------------------|--------------3--2--1--0--|--3----------------------|
 --1----1--1--1--1--1--1--|--1--1--1--1--------------|--1----1--1--1--1--1--1--|

PM PM PM PM PM PM PM PM PM PM PM PM PM PM PM PM PM PM PM PM PM PM
E E E E E E E E Q E E E E E E E E E E E E E E
 
 --------------------------|-------------------------|--------------------------|
 --------------------------|-------------------------|--------------------------|
 --------------------------|-------------------------|--------------------------|
 --------------------------|--3----------------------|--------------------------|
 --3--2--1--0--1--0--------|--3----------------------|--------------3--2--1--0--|
 --------------------4--3--|--1----1--1--1--1--1--1--|--1--1--1--1--------------|

PM PM PM PM PM PM PM PM PM PM PM PM
H H Q E E E E E E Q E E E E E E
 
 --------------------|-------------------------|-------------------------|
 --------------------|-------------------------|-------------------------|
 --------------------|--5----------------------|-------------------------|
 --3--------5--------|--5----------------------|--3----------------------|
 --3--------5--------|--3----3--3--3--3--3--3--|--3----------------------|
 --1--------3--------|-------------------------|--1----1--1--1--1--1--1--|

PM PM PM PM PM PM PM PM PM PM PM PM PM PM PM PM PM PM PM PM PM PM
E E E E E E E E Q E E E E E E E E E E E E E E
 
 --------------------------|-------------------------|--------------------------|
 --------------------------|-------------------------|--------------------------|
 --------------------------|-------------------------|--------------------------|
 --------------------------|--3----------------------|--------------------------|
 --------------3--2--1--0--|--3----------------------|--------------3--2--1--0--|
 --1--1--1--1--------------|--1----1--1--1--1--1--1--|--1--1--1--1--------------|

PM PM PM PM PM PM
Q E E E E E E E E E E E E E E E E E E E E E E
 
 -------------------------|--------------------------|--------------------------|
 -------------------------|--------------------------|--------------------------|
 -------------------------|-----------------1--0-----|--6--5--3--1--0-----------|
 --3----------------------|--------------3--------3--|-----------------3--2--3--|
 --3----------------------|-----------3--------------|--------------------------|
 --1----1--1--1--1--1--1--|--1--3--4-----------------|--------------------------|

PM PM PM PM PM PM PM PM PM PM PM PM PM PM
E E E E E E E E Q E E E E E E E E E E E E E E
 
 --------------------------|-------------------------|--------------------------|
 --------------------------|-------------------------|--------------------------|
 --------------------------|-------------------------|--------------------------|
 --------------------------|--3----------------------|--------------------------|
 --4--5--1--3-----1--------|--3----------------------|--------------3--2--1--0--|
 --------------4-----3--4--|--1----1--1--1--1--1--1--|--1--1--1--1--------------|

H H H H Q Q Q Q
 
 --------------------|--------------------|-----------------4----|
 --------------------|--------------------|-------5----6---------|
 --3-----------------|--------------------|--7-------------------|
 --3--------5--------|--6--------2--------|----------------------|
 --1--------5--------|--6--------2--------|----------------------|
 -----------3--------|--4--------0--------|----------------------|

Q Q Q Q W W
 
 --5----9----10----12----|--13----------------|-------------------|
 ------------------------|--------------------|-------------------|
 ------------------------|--------------------|-------------------|
 ------------------------|--------------------|--2----------------|
 ------------------------|--------------------|--2----------------|
 ------------------------|--------------------|--0----------------|

PM PM PM PM PM PM PM PM PM PM PM PM
W Q E E E E E E Q E E E E E E
 
 -------------------|-------------------------|-------------------------|
 -------------------|-------------------------|-------------------------|
 -------------------|-------------------------|-------------------------|
 --4----------------|--4----------------------|-------------------------|
 --4----------------|--2----2--2--2--2--2--2--|--4----------------------|
 --2----------------|-------------------------|--2----2--2--2--2--2--2--|

PM PM PM PM PM PM PM PM PM PM PM PM PM PM PM PM PM PM
Q E E E E E E Q E E E E E E Q E E E E E E
 
 -------------------------|-------------------------|-------------------------|
 -------------------------|-------------------------|-------------------------|
 -------------------------|-------------------------|-------------------------|
 --7----------------------|--9----------------------|-------------------------|
 --5----5--5--5--5--5--5--|--7----7--7--7--7--7--7--|--7----------------------|
 -------------------------|-------------------------|--5----5--5--5--5--5--5--|

PM PM PM PM PM PM PM PM PM PM
Q E E Q E E Q E E E E E E W
 
 ------------------------|-------------------------|-------------------|
 ------------------------|-------------------------|-------------------|
 ------------------------|-------------------------|-------------------|
 --5---------------------|-------------------------|-------------------|
 --3----3--3--5----------|--4----------------------|--4----------------|
 -------------3----3--3--|--2----2--2--2--2--2--2--|--2----------------|

PM PM PM PM PM PM PM PM PM PM PM PM PM PM PM PM PM PM
Q E E E E E E Q E E E E E E Q E E E E E E
 
 -------------------------|-------------------------|-------------------------|
 -------------------------|-------------------------|-------------------------|
 -------------------------|-------------------------|-------------------------|
 --4----------------------|-------------------------|--7----------------------|
 --2----2--2--2--2--2--2--|--4----------------------|--5----5--5--5--5--5--5--|
 -------------------------|--2----2--2--2--2--2--2--|-------------------------|

PM PM PM PM PM PM PM PM PM PM PM PM PM PM PM PM PM PM
Q E E E E E E Q E E E E E E Q E E E E E E
 
 -------------------------|-------------------------|-------------------------|
 -------------------------|-------------------------|-------------------------|
 -------------------------|-------------------------|-------------------------|
 --9----------------------|-------------------------|--5----------------------|
 --7----7--7--7--7--7--7--|--5----------------------|--3----3--3--3--3--3--3--|
 -------------------------|--3----3--3--3--3--3--3--|-------------------------|

PM PM PM PM PM PM
Q E E E E E E W Q Q H
 
 -------------------------|-------------------|---------------------|
 -------------------------|-------------------|---------------------|
 -------------------------|-------------------|------------7--------|
 -------------------------|-------------------|-------5----7--------|
 --4----------------------|--4----------------|-------5----5--------|
 --2----2--2--2--3--2--0--|--2----------------|-------3-------------|

Q H Q H H H H
 
 ---------------------|--------------------|--------------------|
 ---------------------|--------------------|--------------------|
 --2----4-------------|-----------7--------|--2--------4--------|
 --2----4-------------|--5--------7--------|--2--------4--------|
 --0----2-------------|--5--------5--------|--0--------2--------|
 ---------------------|--3-----------------|--------------------|

Q Q H Q H Q W
 
 ---------------------|---------------------|-------------------|
 ---------------------|---------------------|-------------------|
 ------------7--------|--2----4-------------|-------------------|
 -------5----7--------|--2----4-------------|--4----------------|
 -------5----5--------|--0----2-------------|--4----------------|
 -------3-------------|---------------------|--2----------------|

W
 
 -------------------|-------------------|-------------------|-------------------|
 -------------------|-------------------|-------------------|-------------------|
 -------------------|-------------------|-------------------|-------------------|
 --L----------------|-------------------|-------------------|-------------------|
 --L----------------|-------------------|-------------------|-------------------|
 --L----------------|-------------------|-------------------|-------------------|
 -------------------|-------------------|-------------------|-------------------|
 -------------------|-------------------|-------------------|-------------------|
 -------------------|-------------------|-------------------|-------------------|
 -------------------|-------------------|-------------------|-------------------|
 -------------------|-------------------|-------------------|-------------------|
 -------------------|-------------------|-------------------|-------------------|
 -------------------|-------------------|-------------------|-------------------|
 -------------------|-------------------|-------------------|-------------------|
 -------------------|-------------------|-------------------|-------------------|
 -------------------|-------------------|-------------------|-------------------|
 -------------------|-------------------|-------------------|-------------------|
 -------------------|-------------------|-------------------|-------------------|

PM PM PM PM PM PM PM PM PM PM PM PM PM PM
Q E E E E E E E E E E E E E E
 
 -------------------|-------------------------|--------------------------|
 -------------------|-------------------------|--------------------------|
 -------------------|-------------------------|--------------------------|
 -------------------|--5----------------------|--------------------------|
 -------------------|--5----------------------|--------------------------|
 -------------------|--3----3--3--3--3--3--3--|--3--3--3--3--3--3--3--3--|

PM PM PM PM PM PM PM PM PM PM PM PM PM PM PM PM
E E E E E E E E E E E E E E E E W
 
 --------------------------|--------------------------|-------------------|
 --------------------------|--------------------------|-------------------|
 --------------------------|--------------------------|--4----------------|
 --------------------------|--------------------------|--4----------------|
 --------------------------|--------------------------|--2----------------|
 --3--3--3--3--3--3--3--3--|--3--3--3--3--3--3--3--3--|-------------------|

W E E E E E E E E E E E E E E E E
 
 -------------------|--------------------------|--------------------------|
 -------------------|--------3--7--3-----------|--------3--7--3-----------|
 -------------------|--4--6-----------6--4--6--|--4--6-----------6--4--6--|
 --5----------------|--------------------------|--------------------------|
 --5----------------|--------------------------|--------------------------|
 --3----------------|--------------------------|--------------------------|

W W W W
 
 -------------------|-------------------|-------------------|-------------------|
 -------------------|-------------------|-------------------|-------------------|
 --7----------------|--L----------------|--9----------------|--L----------------|
 --7----------------|--L----------------|--9----------------|--L----------------|
 --5----------------|--L----------------|--7----------------|--L----------------|
 -------------------|-------------------|-------------------|-------------------|

W W W W
 
 -------------------|-------------------|-------------------|-------------------|
 -------------------|-------------------|-------------------|-------------------|
 --4----------------|-------------------|--2----------------|--9----------------|
 --4----------------|--5----------------|--2----------------|--9----------------|
 --2----------------|--5----------------|--0----------------|--7----------------|
 -------------------|--3----------------|-------------------|-------------------|

PM PM PM PM PM PM PM PM PM PM PM PM PM PM PM PM PM PM PM PM PM PM
Q E E E E E E E E E E E E E E E E E E E E E E
 
 -------------------------|--------------------------|--------------------------|
 -------------------------|--------------------------|--------------------------|
 -------------------------|--------------------------|--------------------------|
 --5----------------------|--------------------------|--------------------------|
 --5----------------------|--------------------------|--------------------------|
 --3----3--3--3--3--3--3--|--3--3--3--3--3--3--3--3--|--3--3--3--3--3--3--3--3--|

PM PM PM PM PM PM PM PM
E E E E E E E E W W
 
 --------------------------|-------------------|-------------------|
 --------------------------|-------------------|-------------------|
 --------------------------|--4----------------|-------------------|
 --------------------------|--4----------------|--5----------------|
 --------------------------|--2----------------|--5----------------|
 --3--3--3--3--3--3--3--3--|-------------------|--3----------------|

E E E E E E E E E E E E E E E E W
 
 --------------------------|--------------------------|-------------------|
 --------3--7--3-----------|--------3--7--3-----------|-------------------|
 --4--6-----------6--4--6--|--4--6-----------6--4--6--|--7----------------|
 --------------------------|--------------------------|--7----------------|
 --------------------------|--------------------------|--5----------------|
 --------------------------|--------------------------|-------------------|

W W W W
 
 -------------------|-------------------|-------------------|-------------------|
 -------------------|-------------------|-------------------|-------------------|
 --L----------------|--9----------------|--L----------------|--4----------------|
 --L----------------|--9----------------|--L----------------|--4----------------|
 --L----------------|--7----------------|--L----------------|--2----------------|
 -------------------|-------------------|-------------------|-------------------|

W W W
 
 -------------------|-------------------|-------------------|
 -------------------|-------------------|-------------------|
 -------------------|--2----------------|--9----------------|
 --5----------------|--2----------------|--9----------------|
 --5----------------|--0----------------|--7----------------|
 --3----------------|-------------------|-------------------|

PM PM PM PM PM PM PM PM PM PM PM PM PM PM PM PM PM PM PM PM PM PM
Q E E E E E E E E E E E E E E E E E E E E E E
 
 -------------------------|--------------------------|--------------------------|
 -------------------------|--------------------------|--------------------------|
 -------------------------|--------------------------|--------------------------|
 --5----------------------|--------------------------|--------------------------|
 --5----------------------|--------------------------|--------------------------|
 --3----3--3--3--3--3--3--|--3--3--3--3--3--3--3--3--|--3--3--3--3--3--3--3--3--|

PM PM PM PM PM PM PM PM
[E] [E] [E] [E] [E] [E] [E] [E] [E] [E] [E] [E] [E] [E] [E] [E]  
 
 --------------------------|--------------------------|
 --------------------------|--------3--7--3-----------|
 --------------------------|--4--6-----------6--4--6--|
 --------------------------|--------------------------|
 --------------------------|--------------------------|
 --3--3--3--3--3--3--3--3--|--------------------------|

[E] [E] [E] [E] [E] [E] [E] [E] [E] [E] [E] [E] [E] [E] [E] [E]  
 
 --------------------------|-----------5--------------|
 -----------5--------------|-----5--7-----7--5-----5--|
 --2--4--6-----6--4--2--4--|--7-----------------7-----|
 --------------------------|--------------------------|
 --------------------------|--------------------------|
 --------------------------|--------------------------|

[E] [E] [E] [E] [E] [E] [E] [E] [E] [E] [E] [E] [E] [E] [E] [E]  
 
 -----------7-----4--6--9--|--------------------------|
 --5--7--8-----7-----------|--------3--7--3-----------|
 --------------------------|--4--6-----------6--4--6--|
 --------------------------|--------------------------|
 --------------------------|--------------------------|
 --------------------------|--------------------------|

[E] [E] [E] [E] [E] [E] [E] [E] [E] [E] [E] [E] [E] [E] [E] [E]  
 
 --------------------------|-----------5--------------|
 -----------5--------------|-----5--7-----7--5-----5--|
 --2--4--6-----6--4--2--4--|--7-----------------7-----|
 --------------------------|--------------------------|
 --------------------------|--------------------------|
 --------------------------|--------------------------|

S S E Q E S S Q E E E E E E E E
 
 ---------7-------4-6-9----|--------------------------|
 --5-7-8-------7-----------|--------3--7--3-----------|
 --------------------------|--4--6-----------6--4--6--|
 --------------------------|--------------------------|
 --------------------------|--------------------------|
 --------------------------|--------------------------|

[E] [E] [E] [E] [E] [E] [E] [E] [E] [E] [E] [E] [E] [E] [E] [E]  
 
 --------------------------|-----------5--------------|
 -----------5--------------|-----5--7-----7--5-----5--|
 --2--4--6-----6--4--2--4--|--7-----------------7-----|
 --------------------------|--------------------------|
 --------------------------|--------------------------|
 --------------------------|--------------------------|

[E] [E] [E] [E] [E] [E] [E] [E] [E] [E] [E] [E] [E] [E] [E] [E]  
 
 -----------7-----4--6--9--|--------------------------|
 --5--7--8-----7-----------|--------3--7--3-----------|
 --------------------------|--4--6-----------6--4--6--|
 --------------------------|--------------------------|
 --------------------------|--------------------------|
 --------------------------|--------------------------|

[E] [E] [E] [E] [E] [E] [E] [E] [E] [E] [E] [E] [E] [E] [E] [E]  
 
 --------------------------|-----------5--------------|
 -----------5--------------|-----5--7-----7--5-----5--|
 --2--4--6-----6--4--2--4--|--7-----------------7-----|
 --------------------------|--------------------------|
 --------------------------|--------------------------|
 --------------------------|--------------------------|

S S E Q E S S Q W W
 
 ---------7-------4-6-9----|-------------------|-------------------|
 --5-7-8-------7-----------|-------------------|-------------------|
 --------------------------|--4----------------|--2----------------|
 --------------------------|--4----------------|--2----------------|
 --------------------------|--2----------------|--0----------------|
 --------------------------|-------------------|-------------------|

W W Q Q H
 
 -------------------|-------------------|---------------------||
 -------------------|-------------------|---------------------||
 -------------------|--5----------------|--4----4-------------||
 --5----------------|--5----------------|--4----4-------------||
 --5----------------|--3----------------|--2----2-------------||
 --3----------------|-------------------|---------------------||

Duration Legend
 
 ---------------

W - whole
H - half
Q - quarter
E - 8th
S - 16th
T - 32nd
X - 64th
. - note dotted
|-n-| - n-tuplets
Tablature Legend
 
 ----------------

L - tied note
x - dead note
g - grace note
(n) - ghost note
> - accentuded note
NH - natural harmonic
AH - artificial harmonic
TH - tapped harmonic
SH - semi harmonic
PH - pitch harmonic
h - hammer on
p - pull off
b - bend
br - bendRelease
pb - preBend
pbr - preBendRelease
brb - bendReleaseBend
\n/ - tremolo bar dip
\n - tremolo bar dive
-/n - tremolo bar Release up
/n\ - tremolo bar inverted dip
/n - tremolo bar return
-\n - tremolo bar Release down
S - shift slide
s - legato slide
/ - slide into from below or out of upwards
\ - slide into from above or out of downwards
~ - vibrato
W - wide vibrato
tr - trill
TP - tremolo picking
T - tapping
S - slap
P - pop
< - fade in
^ - brush up
v - brush down

Important: The song above is NOT stored on the Chordie server. The original song is hosted at www.guitaretab.com. Chordie works as a search engine and provides on-the-fly formatting. Chordie does not index songs against artists'/composers' will. To remove this song please click here.

Text color:
Chord color:
Chord grids: 
Font size:    
Page size: 

E
Rate #1 of 2 versions

Login - add to songbook

SHARE PAGE  



You need to log in to post comments