Guitar Tabs, Chords and Lyrics
Server problems seems to be fixed. Chordie has been experiencing problems with songs disappearing. These issues now seems to be fixed, but still verifying the fix. If you find anything strange, please email admin@chordie.com.


Just Like Anyone  Soul Asylum

Soul Asylum "Just Like Anyone"
>From "Let Your Dim Light Shine"
Transcribed by Bryan Pero (perob@willow.uml.edu)
Okay, this is a pretty easy song. There are two guitars playing at most
times. Gtr.1 (Dave Pirener) plays first position chords, while Gtr.2
(Dan Murphy) plays barre chords. On the verses hit D chord once then
palm mute it and strum. Then, when you play G upstroke it once. Just
listen to the CD, you'll get it.
Verse I
[D]She walks into the outhouse, the cold night breathes into her [G]face
[D]The flies are standing still now, the moon it spills through the [G]place
Chorus I
And she starts [C]wondering what it's [G]like to be [D]liked by everyone, and
And [C]like every[G]one be [D]just like anyone, who [C]just wants to [G]be so
[D]Just like anyone, [D]just like anyone
Verse II
[D]She reaches through the darkness, her fingers touch the porcelain [G]seat
[D]She spins and pulls her pants down, the cold air holds her like a [G]thief
Chorus II
And she starts [C]wondering what they [G]mean, do they [D]just mean to be mean
And [C]thinking about the [G]scene, do they [D]just want to be seen
[C]Try not to [G]seem so, [D]Just like anyone, [D]Just like anyone
Guitar Solo:
Gtr.1 strum chords about tab. I've included the time on the CD at
certain points about the tab to help you follow.
Symbols:
sbr-slow bend and release
br-bend and release
/\-slide up or down
~-vibrato
^^^^^-exagerated vibrato
^-hammer-on or pull-off
B 1:15
 
 E--12sbr\---17br--14------------14-12--------------------
 B--15sbr\------------17-15~-----------15-12--------------
 G---------------------------16\-------------12br---------
 D------------------------------------------------12~\----
 A--------------------------------------------------------
 E--------------------------------------------------------

1:22
[B] [D] [E] [C] [G] [D]  
 
 E--------------------10^7--------------------------
 B---------------------------10^7-------------------
 G--6^^^^^--9-7------------7------7--7--9-7-9br-7---
 D--------------9\----------------------------------
 A--------------------------------------------------
 E--------------------------------------------------

(This is also the Outro Riff)
[C] [G] [D]  
 
 E--10^7--------------------------
 B---------10^7-------------------
 G-------7------7--7--9-7-9br-7---
 D--------------------------------
 A--------------------------------
 E--------------------------------

Bridge:
Bridge riff(played be Gtr.2)
[D]  
 
 E--14---14---14---14---14---14---14---14------
 B-----15---15---15---15---15---15---15---15---

[G]  
 
 E--15---15---15---15---15---15---15---15-----
 B----15---15---15---15---15---15---15---15---

D(w/bridge riff) G
The door comes screeching open, she walks into the evening air
[D]She disappears in the darkness all that's left is the faint smell
of her [G]hair, she's done
Chorus III (w/Outro Riff)
[C]Wondering what it's [G]like to be [D]liked by everyone and [C]like every[G]one
be [D]just like anyone and [C]just wants to [G]be so [D]just like anyone
And [C]wondering what they [G]mean, do they [D]just mean to be mean,
And [C]thinking about the [G]scene, do they [D]just want to be seen
[C]Try not to [G]seem so [D]just like anyone ([C]just like [G]anyo[D]ne)
Just like anyone ([C]just like [G]any[D]one) [D]Just like anyone
[D]Just like anyone, [D]Just like anyone
repeat and fade with end riff:
 
 E--------------------------------------
 B--15--17-15--17br---15--17-15--17br---

or
 
 E--10--12-10--12br---10---12-10--12br---
 B---------------------------------------

That's it! Send me your comments!
>From perob@willow.uml.edu

Important: The song above is NOT stored on the Chordie server. The original song is hosted at www.guitaretab.com. Chordie works as a search engine and provides on-the-fly formatting. Chordie does not index songs against artists'/composers' will. To remove this song please click here.

Text color:
Chord color:
Chord grids: 
Font size:    
Page size: 

B C D E G
Rate #3 of 4 versions

Login - add to songbook

SHARE PAGE  




You need to log in to post comments