Guitar Tabs, Chords and Lyrics
Server problems seems to be fixed. Chordie has been experiencing problems with songs disappearing. These issues now seems to be fixed, but still verifying the fix. If you find anything strange, please email admin@chordie.com.


Zero Chance   Soundgarden

 
 e|-11-----12------0---0-0----0-x-x-|-11-----12------0---0-0----0-x-x-|-11-----12--|
 B|--0-0-0--0-0---/12---------------|--0-0-0--0-0---/12---------------|--0-0-0--0--|
 G|----------------0---0-0----0-x-x-|----------------0---0-0----0-x-x-|------------|
 D|-13-----14-----------------------|-13-----14-----------------------|-13-----14--|
 A|---------------------------------|---------------------------------|------------|
 E|-------------------------0-------|---------------------------------|------------|
 ---0----------0-----0--|
 0--/12---0--0--0---0-0-|
 ---0----0--0--0--------|
 --------4--2--2--------|
 --------5--3--3--------|
 -----------------------|
 e|-11-----12------0---0-0----0-x-x-|-11-----12------0---0-0----0-x-x-|-11-----12---|
 B|--0-0-0--0-0---/12---------------|--0-0-0--0-0---/12---------------|--0-0-0--0---|
 G|----------------0---0-0----0-x-x-|----------------0---0-0----0-x-x-|-------------|
 D|-13-----14-----------------------|-13-----14-----------------------|-13-----14---|
 A|---------------------------------|---------------------------------|-------------|
 E|-------------------------0-------|---------------------------------|-------------|
 ---0--------------0---|
 0--/12-0--0--0-----0--|
 ---0--0--0--0-----0---|
 ------4--2--2--0--0---|
 ------5--3--3--2--2---|
 ---------------3--3---|

 


 


 4/4 * < Drum roll stops at this point


 

 
 e|--0---------0-------------|--------------------------------------------|
 B|--0---------0-------------|----------------------------1p0-------------|
 G|--0---------0-------------|--4p2-----0----0h2p0-------------0----------|
 D|-(0)------------------0---|---------------------0h2p0----------0-------|
 A|-(2)---------------0------|--------------------------------------------|
 E|-(3)----------------------|-------3-------------------------------3/5--|

 


 


 Electric Rhythm 1, w/ light distortion


 [4/4]  

 
 e|-5----5-----5---5\--|-------3--3-----3-----3/---|
 B|-5----5-----5---5\--|-------3--3-----3-----3/---|
 G|-7----7---7-7---7\--|-5--4--5--5-----5-----5/---|
 D|-7----7-----7---7\--|-5--5--5--5-----5-----5/---|
 A|-5----5-----5---5\--|-3--3--3--3-----3-----3/---|
 E|-5----5-----5---5\--|-------3--3-----3-----3/---|

 


 "Yeah..... yeah............"


 


 Verse (Electric):


 4/4 7/8 4/4


 

 
 e|----------------------|---------------------|-------------------|-----------------|
 B|------------3--0---3--|---------3--0------3-|---------3-0-------|-----------------|
 G|---------0---------0--|-------0-----------0-|-------0------4----|-0---0---2-------|
 D|------0------------0--|-----0---------------|-----0--------4----|-3---3---3-------|
 A|---2---------------2--|---2-----------4-----|---2---------------|-0---0---0-------|
 E|-3-----------------3--|-3-------------------|-3---------------0-|-1---1---1-------|

 


 "I think I know the answer... I stumbled on and all the


 world... fell down..."Chorus:


 


 Chorus:


 4/4 play 3x


 

 
 e|------------3----3---3/-|-5---5-----5---5----|
 B|------------3----3---3/-|-5---5-----5---5----|
 G|-5--4--5----5----5---5/-|-7---7---7-7---7\---|
 D|-5--5--5----5----5---5/-|-7---7-----7---7\---|
 A|-3--3--3----3----3---3/-|-5---5-----5---5\---|
 E|-------3----3----3---3/-|-5---5-----5---5\---|

 


 "They say if you look hard...


 you'll find your way back home..."


 


 Chorus Ending


 [5/4]  

 
 e|------------3----3---3--|
 B|------------3----3---3--|
 G|-5--4--5----5----5---5--|
 D|-5--5--5----5----5---5--|
 A|-3--3--3----3----3---3--|
 E|-------3----3----3---3--|

 


 


 Play Acoustic Intro, Electric Rhythm 1, then Verse Riff


 


 Play Chorus Ending, then Bridge (below)


 


 Bridge


 [4/4]  

 
 |-------------0---------0---0----|-------------0---------0---0-----|
 |-------------5---------0---0----|-------------5---------0---0-----|
 |----------0---------------------|----------0----------------------|
 |-------0----------9--9-9--------|-------0----------9--9-9---------|
 |----7-------------9--9-9--------|----7-------------9--9-9---------|
 |-8--------------7-7--7-7--------|-8--------------7-7--7-7---------|

 


 "Why doesn't any - one believe.....


 


 

 
 |------------0-----------------|----------------------0-|-0----0----------0-0--|
 |------------5-----------0-0---|-------------3--0-----0-|-0----0----------0-0--|
 |---------0--------------0-0---|----------0--------4----|-0----0--0--0----0-0--|
 |------0--------9\---5---5-----|-------0-----------4----|-3----3--3--3---------|
 |---7-----------9\---5---5-----|----2-------------------|-0----0--0--0---------|
 |-8-------------7\---3---3-----|-3----------------------|-1----1--1--1---------|

 


 ........ in loneliness..."


 


 [2/4]  

 
 |-------------0-------0---0------|-------------0--------0---0-----|------------0-------|
 |-------------5-------0---0------|-------------5--------0---0-----|------------5-------|
 |----------0---------------------|----------0---------------------|---------0----------|
 |-------0----------9--9---9------|-------0----------9---9---9-----|------0--------9\---|
 |----7-------------9--9---9------|----7-------------9---9---9-----|---7-----------9\---|
 |-8--------------7-7--7---7------|-8--------------7-7---7---7-----|-8-------------7\---|

 


 


 Play Chorus again


 


 Ending


 [4/4]  

 
 |-------------0---------0---0----|-------------0---------0---0-----|
 |-------------5---------0---0----|-------------5---------0---0-----|
 |----------0---------------------|----------0----------------------|
 |-------0----------9--9-9--------|-------0----------9--9-9---------|
 |----7-------------9--9-9--------|----7-------------9--9-9---------|
 |-8--------------7-7--7-7--------|-8--------------7-7--7-7---------|

 


 


 slow


 

 
 |------------0-----------------|----------------------0-|-0----0---------0---|------3---3----|
 |------------5-----------0-0---|-------------3--0-----0-|-0----0---------0---|------3---3----|
 |---------0--------------0-0---|----------0--------4----|-2----2---2-----2---|--5---4---4----|
 |------0--------9\---5---5-----|-------0-----------4----|-3----3---3-----3---|--5---5---5----|
 |---7-----------9\---5---5-----|----2-------------------|-0----0---0---------|--3---3---3----|
 |-8-------------7\---3---3-----|-3----------------------|-1----1---1--1------|----------3----|


Important: The song above is NOT stored on the Chordie server. The original song is hosted at www.guitaretab.com. Chordie works as a search engine and provides on-the-fly formatting. Chordie does not index songs against artists'/composers' will. To remove this song please click here.

This song is displayed as text-only. Transposing and tuning is only available for chordpro-songs.
Rate #1 of 1 versions

Jango Player

Login - add to songbook

SHARE PAGE  



You need to log in to post comments