Guitar Tabs, Chords and Lyrics
Major upgrade!! After one year development the new version of Chordie is now online! Please give feedback.


Saint Mary  Sparklehorse

Verse:
[Bm] [F#m] [Bm2] [F#m] [/F] [Em] [A] [G] [/A] [/Bb] 
 
 -7----7--2-------------2----------0--0------5------3-----------------|
 ---7-----2-2---8----7--2-2--------0---0-----5-5----3-3-3-------------|
 ----7----2--2----7-----2--2-------0----0----5--5---3--3--------------|
 ------------------9--------------------------------------------------|
 ---------------------------------------------------------------------|
 -7----7--2-----7----7--2-----1------0-----5-------3-------3--5--6----|

Blan - ket me sweet nurse and keep me from burnin' I -
[Bm] [F#m] [Bm2] [F#m] [/F] [Em] [A] [G] [/F#] [/F] 
 
 ---7----7--2---------------------2----------0--0------5------3---------------|
 -----7-----2-2--------8----7-----2-2--------0---0-----5-5----3-3-3-----------|
 ------7----2--2---------7--------2--2-------0----0----5--5---3--3------------|
 -------------------------9---------------------------------------------------|
 -----------------------------------------------------------------------------|
 ---7----7--2----------7----7-----2-----1------0-----5-------3-------3--2--1--|

must get back to the woods dear girls. I must get back to the woods...
Chorus:
[Emadd9] [-] [Em] [A] [G] 
 
 -2--0---2--0--2-0-2-0--0--------0-------0---------0--3-----3---3----3----|
 -0--0---0--0--0-0-0-0--2---2-------2----2---2--------3-3-----3-3-3-------|
 -0--0---0--0--0-0-0-0--2-----2----------2------2-----0--0------0--0------|
 -------------------------------------------------------------------------|
 -----------------------0--------0----------------------------------------|
 -0--0---0--0--0-0-0-0-------------------0---------0--3-----0---3----3----|

In the bloody elevator risin' for their first cup of tea of the
[D] [/G] [/F#] [/F]  
 
 -2----2------2---2---2------------|
 -3-3----2----3---3---3------------|
 -2--2--------2---0---0------------|
 -0----0---------------------------|
 ----------------------------------|
 -------------3---2---1--- 


Important: The song above is NOT stored on the Chordie server. The original song is hosted at www.guitaretab.com. Chordie works as a search engine and provides on-the-fly formatting. Chordie does not index songs against artists'/composers' will. To remove this song please click here.

Text color:
Chord color:
Chord grids: 
Font size:    
Page size: 

A Bm D Em Emadd9 F#m G
Rate #2 of 3 versions

Jango Player

Login - add to songbook

SHARE PAGE  




You need to log in to post comments