Guitar Tabs, Chords and Lyrics
Major upgrade!! After one year development the new version of Chordie is now online! Please give feedback.


Pfüati Gott Elisabeth  Spider Murphy Gang

|: V A V D VII E:| 12x
[A]Pfüati Gott Elisabeth host mi g'schaukelt in dei'm Wasserbett
[E]Woh oh oh [E]swar [D]so [A]schee[D] [E]
[A]Pfüati Gott Veronika mit dir war's einfach wunderbar
[E]Woh oh oh jetzt [E]muaß [D]i [A]geh[D] [E]
|: A D E:| 4x
[A]Pfüati Gott Edeltraud host ma tiaf in d'Aug'n g'schaut
[E]Woh oh oh [E]swar [D]so [A]schee[D] [E]
[A]Pfüati Gott Angelika mit dir war's einfach wunderbar
[E]Woh oh oh jetzt [E]muaß [D]i [A]geh[D] [E]
C# IX IX F#
I hob doch nix von Liebe g'sogt des müaßt i wiss'n
[C#]I hab bloß g'sogt daß i di mog[F#]
[C#]Schau mi doch net so traurig o [F#] sonst plogt mi s'Gwiss'n
C# F# VII H VII E
I hab bloß g'sogt daß i di mog
|: A D E:|
[A]Pfüati Gott Adelgund hast mi busselt mit dei'm Honigmund
[E]Woh oh oh [E]swar [D]so [A]schee[D] [E]
[A]Pfüati Gott Erika mit dir war's einfach wunderbar
[E]Woh oh oh jetzt [E]muaß [D]i [A]geh[D] [E]
[C#]I hob doch nix von Liebe g'sogt [F#] des müaßt i wiss'n
[C#]I hab bloß g'sogt daß i di mog[F#]
[C#]Schau mi doch net so traurig o [F#] sonst plogt mi s'Gwiss'n
[C#]I hab bloß g'sogt daß i di mog[F#]
[C#]I hab bloß g'sogt daß i di mog[F#] [B] [E]
|: A D E:| 8x (Keyboard)
|: A D E:| 25x (Outro)
Outro:
 
 |---------------------|-----------------------|--------------------------------|
 |--2-2h3--2--3p2h3/5--|--13b14--14b15--13b14--|--12b14r12p10h12---10-----------|
 |---------------------|-----------------------|-----------------11----10b11--9-|
 |---------------------|-----------------------|--------------------------------|
 |---------------------|-----------------------|--------------------------------|
 |---------------------|-----------------------|--------------------------------|
 |----------------------------------|
 |------------10-------------12/14--|
 |--9b11r9b11------9b11r9b11--------|
 |----------------------------------|
 |----------------------------------|
 |----------------------------------|
 |-----------------------------------------------------------------------|
 |-----------------12--12b14-----12------------12b14-----------13/14-----|
 |-----------11-14------------14----14--11-14---------14-11-14--------14-|
 |-----11-14-------------------------------------------------------------|
 |--14-------------------------------------------------------------------|
 |-----------------------------------------------------------------------|

||
 
 |--13h14--14--13h14p12------------|
 |----------------------14--12/14--|
 |---------------------------------|
 |---------------------------------| 2x
 |---------------------------------|
 |---------------------------------|
 |--12-----12-----12----12--------------------------|
 |-----12-----10-----9------------------12b14r12p10-|
 |-------------------------11---9h11p9--------------|
 |--------------------------------------------------|
 |--------------------------------------------------|
 |--------------------------------------------------|

RPM = right palm muted
Transcribed by Texas JG

Important: The song above is NOT stored on the Chordie server. The original song is hosted at www.guitaretab.com. Chordie works as a search engine and provides on-the-fly formatting. Chordie does not index songs against artists'/composers' will. To remove this song please click here.

Text color:
Chord color:
Chord grids: 
Font size:    
Page size: 

A B C# D E F#
Rate #1 of 1 versions

Login - add to songbook

SHARE PAGE  



You need to log in to post comments