Guitar Tabs, Chords and Lyrics
Server problems seems to be fixed. Chordie has been experiencing problems with songs disappearing. These issues now seems to be fixed, but still verifying the fix. If you find anything strange, please email admin@chordie.com.


Dark Eyed Woman  Spirit

Dark Eyed Woman chords
Spirit 1969 (Clear album / Ferguson, California) *
 
 e|-------------------------|
 B|-------------------------|
 G|-------------------------|
 D|-------------7-----------|
 A|------5-7-9----9---------|
 E|-5-77--------------------|
 e|-------------------------|
 B|-------------------------|
 G|-------------------------|
 D|------------7-9-s11-s9-7-| s = slide
 A|------5-7-9--------------|
 E|-5-77--------------------|
 e|-------------------------|
 B|-------------------------|
 G|-------------------------|
 D|-------------b14---------| b = bend
 A|-------5-7-9-------------|
 E|-5--77-----------7-------|

Bm/Bm G/G (distortion)
[Bm]Dark-eyed woman on a hot summer's night[(Bm/Bm] [G/G)]
[Bm]Dark-eyed woman are you burning tonight?[(Bm/Bm] [G/G)]
[A]Dark-eyed woman won't you step in the light[(Bm/Bm] [G/G)]
And [Bm]tell me dark-eyed woman are you burning to[G]night
To[A]ni[Bm]ght...
[Bm/Bm] [G/G]  
[Bm]Dark-eyed woman it's a quarter to four[(Bm/Bm] [G/G)]
I [Bm]hear your voice
Like a child at my door[(Bm/Bm] [G/G)]
[A]Dark-eyed woman I could love you once more[(Bm/Bm] [G/G)]
But [Bm]dark-eyed woman we've both been there be[G]fore
Be[A]fo[Bm]re...
(instrumental break)
Bm/Bm G/G (distortion)
[Bm]Dark-eyed woman on a hot summer's night[(Bm/Bm] [G/G)]
[Bm]Dark-eyed woman are you burning tonight?[(Bm/Bm] [G/G)]
[A]Dark-eyed woman won't you step in the light[(Bm/Bm] [G/G)]
And [Bm]tell me dark-eyed woman are you burning to[G]night
To[A]ni[Bm]ght...
 
 e|-------------------------|
 B|-------------------------|
 G|-------------------------|
 D|-------------7-----------|
 A|------5-7-9----9---------|
 E|-5-77--------------------|
 e|-------------------------|
 B|-------------------------|
 G|-------------------------|
 D|------------7-9-s11-s9-7-| s = slide
 A|------5-7-9--------------|
 E|-5-77--------------------|
 e|-------------------------|
 B|-------------------------|
 G|-------------------------|
 D|-------------b14---------| b = bend
 A|-------5-7-9-------------|
 E|-5--77-----------7-------|

[Bm/Bm] [G/G] [Bm]  
* Alternate:
Capo II
Bm = Am
G = F
A = G
Set8

Important: The song above is NOT stored on the Chordie server. The original song is hosted at www.guitaretab.com. Chordie works as a search engine and provides on-the-fly formatting. Chordie does not index songs against artists'/composers' will. To remove this song please click here.

Text color:
Chord color:
Chord grids: 
Font size:    
Page size: 

A Bm G G/G
Rate #0 of 2 versions

Login - add to songbook

SHARE PAGE  




You need to log in to post comments