Guitar Tabs, Chords and Lyrics
Major upgrade!! After one year development the new version of Chordie is now online! Please give feedback.


Across These Waters   Spoken

 
 |----------------------------------|
 |----------------------------------|
 |9/-------9/-------9/--------(10--)|
 |7/-0-3-3/7/-0-3-3/7/-0-3-3/-(8---)|
 |7/-0-3-3/7/-0-3-3/7/-0-3-3/-(8---)|
 |7/-0-3-3/7/-0-3-3/7/-0-3-3/-(8-X8)|

 


 


 Second Time End On


 

 
 |-------------|
 |-------------|
 |-------------|
 |6-6-6-6-6-6-6|
 |6-6-6-6-6-6-6|
 |6-6-6-6-6-6-6|

 


 


 Verse 4X


 

 
 |----------------------------------------|
 |----------------------------------------|
 |------------------------666-666-666-666-|
 |0-3-3-3-3-3-3-3-3-3-3-3-444-444-444-444-|
 |0-3-3-3-3-3-3-3-3-3-3-3-444-444-444-444-|
 |0-3-3-3-3-3-3-3-3-3-3-3-444-444-444-444-|

 


 . . .


 


 Chorus


 

 
 |----------------------------------------------------------|
 |----------------------------------------------------------|
 |-----------------[12------/-12--------12--------(10--)]---|
 |666-666-666-666/-[10-0-6-6/-10-0-6-6/-10-0-6-6/-(8---)]---|
 |666-666-666-666/-[10-0-6-6/-10-0-6-6/-10-0-6-6/-(8---)]---|
 |666-666-666-666/-[10-0-6-6/-10-0-6-6/-10-0-6-6/-(8-X8)-X3]|

 


 * * *


 Third Time


 

 
 |---------------------------------------------------------|
 |---------------------------------------------------------|
 |--12------/-12--------12--------(10--)-------------------|
 |/-10-0-6-6/-10-0-6-6/-10-0-6-6/-(8---)--3--3--3-333-3--3-|
 |/-10-0-6-6/-10-0-6-6/-10-0-6-6/-(8---)--3--3--3-333-3--3-|
 |/-10-0-6-6/-10-0-6-6/-10-0-6-6/-(8-X8)--3--3--3-333-3--3-|

 


 * * * ***


 


 Verse 4X


 

 
 |----------------------------------------|
 |----------------------------------------|
 |------------------------666-666-666-666-|
 |0-3-3-3-3-3-3-3-3-3-3-3-444-444-444-444-|
 |0-3-3-3-3-3-3-3-3-3-3-3-444-444-444-444-|
 |0-3-3-3-3-3-3-3-3-3-3-3-444-444-444-444-|

 


 


 Chorus


 

 
 |----------------------------------------------------------|
 |----------------------------------------------------------|
 |-----------------[12------/-12--------12--------(10--)]---|
 |666-666-666-666/-[10-0-6-6/-10-0-6-6/-10-0-6-6/-(8---)]---|
 |666-666-666-666/-[10-0-6-6/-10-0-6-6/-10-0-6-6/-(8---)]---|
 |666-666-666-666/-[10-0-6-6/-10-0-6-6/-10-0-6-6/-(8-X8)-X3]|

 


 * * *


 Third Time


 

 
 |---------------------------------------------------------|
 |---------------------------------------------------------|
 |--12------/-12--------12--------(10--)-------------------|
 |/-10-0-6-6/-10-0-6-6/-10-0-6-6/-(8---)--8////////////////|
 |/-10-0-6-6/-10-0-6-6/-10-0-6-6/-(8---)--8////////////////|
 |/-10-0-6-6/-10-0-6-6/-10-0-6-6/-(8-X8)--8////////////////|

 


 * * * ****************


 


 Interlude (Less Distortion) 2X


 

 
 |---------------------------------|
 |---------------------------------|
 |---------------------------------|
 |6-6-6--8-8-8--6-6-6--8-8-8--6-6-6|
 |6-6-6--6-6-6--6-6-6--6-6-6--6-6-6|
 |6-6-6--6-6-6--6-6-6--6-6-6--6-6-6| 

 


 


 Outro (Distortion)8X


 


 

 
 |---------------------------------|
 |---------------------------------|
 |---------------------------------|
 |6-6-6--8-8-8--6-6-6--10-10-10-6-6|
 |6-6-6--6-6-6--6-6-6--6--6--6--6-6|
 |6-6-6--6-6-6--6-6-6--6--6--6--6-6| 


Important: The song above is NOT stored on the Chordie server. The original song is hosted at www.guitaretab.com. Chordie works as a search engine and provides on-the-fly formatting. Chordie does not index songs against artists'/composers' will. To remove this song please click here.

This song is displayed as text-only. Transposing and tuning is only available for chordpro-songs.
Rate #2 of 4 versions

Login - add to songbook

SHARE PAGE  




You need to log in to post comments