Guitar Tabs, Chords and Lyrics
Major upgrade!! After one year development the new version of Chordie is now online! Please give feedback.


Fast wie von selbst  Sportfreunde Stiller

Key:
0h2 hammer on
Main Riff:
 
 e:|-------------------------|-------------------------|---------------------------3--------3--------|
 B:|-------------------------|-------------------------|------------------------1--------1-----------|
 G:|-------------------------|-------------------------|------------------------2--------------2--0--|
 D:|---2--0h2--0h2--2--3--2--|---2--0h2--0h2--2--3--0--|--------------------0---3-----3--------3--0--|
 A:|---3---------------------|---3---------------------|---------------0h2---------------------------|
 E:|-------------------------|-------------------------|---3---3-2--0--------------------------------|

In the 2nd verse play C-Dur insted of this until.......here
 
 e:|-------------------------|-------------------------|---------------------------3--------|
 B:|-------------------------|-------------------------|------------------------1-----------|
 G:|-------------------------|-------------------------|------------------------2-----2--0--|
 D:|---2--0h2--0h2--2--3--2--|---2--0h2--0h2--2--3--0--|--------------------0---3-----3--0--|
 A:|---3---------------------|---3---------------------|---------------0h2------------------|
 E:|-------------------------|-------------------------|---3---3-2--0-----------------------|

Refrain:
[C5] [G5] [E5] [F5]  
 
 e:|-------------------|
 B:|-------------------|
 G:|---5---------------|
 D:|---3---5---2---3---|
 A:|---3---5---2---3---|
 E:|-------3---0---1---|

I think this song's not very difficult to figure out, there are a little notes more "hidden" in the
song but i haven't got time to list it up and surely I don't want to, but you could do it by yourself
immediately.
Lyrics:
Fast wie von selbst, fast wie von selbst sind wir hierher gekommen
und jetzt stehen wir, wie benommen hier.
Fast wie von selbst, fast wie von selbst
sind wir hierher gekommen und jetzt stehen wir,
wie benommen hier!
Fast wie von allein, fast wie von,
fast wie von allein, jedoch niemals ohne dich,
m?chte ich sein.
Fast wie von allein, fast wie von,
fast wie von allein, jedoch niemals ohne dich,
m?chte ich sein.
Fast wie von selbst, fast wie von selbst
hat es seinen Lauf genommen,
und jetzt stehen wir, wie verloren hier.
Fast wie von selbst, fast wie von selbst
sind wir uns n?her gekommen
und jetzt stehen wir, gemeinsam hier.
Fast wie von allein, fast wie von,
fast wie von allein, jedoch niemals ohne dich,
m?chte ich sein.
Fast wie von allein, fast wie von,
fast wie von allein, jedoch niemals ohne dich,
m?chte ich sein.

Important: The song above is NOT stored on the Chordie server. The original song is hosted at www.guitaretab.com. Chordie works as a search engine and provides on-the-fly formatting. Chordie does not index songs against artists'/composers' will. To remove this song please click here.

Text color:
Chord color:
Chord grids: 
Font size:    
Page size: 

C5 E5 F5 G5
Rate #3 of 6 versions

Login - add to songbook

SHARE PAGE  




You need to log in to post comments