Guitar Tabs, Chords and Lyrics
Major upgrade!! After one year development the new version of Chordie is now online! Please give feedback.


Me   Staind

 
 Eb|-------------------------|-------------------------|
 Bb|-------------------------|-------------------------|
 Gb|-------------------------|-------------------------|
 Db|------4p3------4p3-------|------4p3---4p3----------|
 Ab|-3--3-----3--3-----3--3--|----3-----3--------------|
 Db|-3--3-----3--3-----3--3--|----3-----3--------------|

 


 


 


 play this 12x, then


 


 


 | 1 + 2 + 3 + 4 + | 1 + 2 + 3 + 4 + |


 _______________________________________________________


 

 
 Eb|-------------------------|-------------------------|
 Bb|-------------------------|-------------------------|
 Gb|-------------------------|-------------------------|
 Db|------4p3----4--4-----4--|----------(4)------------|
 Ab|-3--3-----3--3----(3)-3--|--hold----(3)---hold-----|
 Db|-3--3-----3--------3--3--|----------(3)------------|

 


 


 


 | 1 + 2 + 3 + 4 + | 1 + 2 + 3 + 4 + |


 _______________________________________________________


 

 
 Eb|-------------------------|-------------------------|
 Bb|-------------------------|-------------------------|
 Gb|-------------------------|-------------------------|
 Db|-8----(8)---(8)---(8)----|(8)---(8)---(8)---(8)--\-|
 Ab|-8----(8)---(8)---(8)----|(8)---(8)---(8)---(8)--\-|
 Db|-8----(8)---(8)---(8)----|(8)---(8)---(8)---(8)--\-|

 


 


 you can either hold the 8 (Bb) or play it real fast


 


 


 


 Verse:


 


 


 | 1 + 2 + 3 + 4 + | 1 + 2 + 3 + 4 + |


 _______________________________________________________


 

 
 Eb|-------------------------|-------------------------|
 Bb|-------------------------|-------------------------|
 Gb|-------------------------|-------------------------|
 Db|\3-----------------------|------(bass line)--------|
 Ab|\3-----------------------|-------------------------|
 Db|\3-----------------------|-------------------------|

 


 ^ play this only after you play the Bb chord


 


 every 8 bars or so, Mike throws this in:


 


 


 | 1 + 2 + 3 + 4 + |


 _____________________________


 

 
 Eb|-------------------------|
 Bb|-------------------------|
 Gb|-------------10----------|
 Db|----------------8--------|
 Ab|-------------------9-----|
 Db|-------------------------|

 


 


 


 Pre-Chorus:


 


 | 1 + 2 + 3 + 4 + | 1 + 2 + 3 + 4 + |


 _______________________________________________________


 

 
 Eb|-------------------------|-------------------------|
 Bb|-------------------------|-------------------------|
 Gb|-------------------------|-------------------------|
 Db|------4p3------4p3-------|------4p3---4p3----------|
 Ab|-3--3-----3--3-----3--3--|----3-----3--------------|
 Db|-3--3-----3--3-----3--3--|----3-----3--------------|

 


 


 


 play this 3x, then


 


 


 | 1 + 2 + 3 + 4 + | 1 + 2 + 3 + 4 + |


 _______________________________________________________


 

 
 Eb|-------------------------|-------------------------|
 Bb|-------------------------|-------------------------|
 Gb|-------------------------|-------------10----------|
 Db|------4p3----4--4-----4--|---/------------8--------|
 Ab|-3--3-----3--3----(3)-3--|---/---------------9-----|
 Db|-3--3-----3--------3--3--|---/---------------------|

 


 


 


 Chorus: The Rythm is really strange, but with the dvd


 and my timing you should be able to figure it out.


 That 12|10|13 chord is kinda hard to get, need to


 practice that one,use the little finger to get the 13 !


 


 


 | 1 + 2 + 3 + 4 + | 1 + 2 + 3 + 4 + |


 _______________________________________________________


 

 
 Eb|-------------------------|-------------------------|
 Bb|-------------------------|-------------------------|
 Gb|-------------------------|-------------------------|
 Db|-12----------12----12-12-|----------12-12----12-x--|
 Ab|-10----------10----10-10-|----------10-10----10-x--|
 Db|-10----------10----10-13-|----------13-13----13-x--|

 


 


 


 | 1 + 2 + 3 + 4 + | 1 + 2 + 3 + 4 + |


 _______________________________________________________


 

 
 Eb|-------------------------|-------------------------|
 Bb|-------------------------|-------------------------|
 Gb|-------------------------|-------------------------|
 Db|-3-------(3)-3-----3-(0)-|----------0--0-----0-----|
 Ab|-3-------(3)-3-----3--0--|----------0--0-----0--0--|
 Db|-3-------(3)-3-----3--0--|----------0--0-----0--0--|

 


 


 


 play this 4x, then after the first chorus:


 


 


 | 1 + 2 + 3 + 4 + | 1 + 2 + 3 + 4 + |


 _______________________________________________________


 

 
 Eb|-------------------------|-------------------------|
 Bb|-------------------------|-------------------------|
 Gb|-------------------------|-------------------------|
 Db|-8----(8)---(8)---(8)----|(8)---(8)---(8)---(8)--\-|
 Ab|-8----(8)---(8)---(8)----|(8)---(8)---(8)---(8)--\-|
 Db|-8----(8)---(8)---(8)----|(8)---(8)---(8)---(8)--\-|

 


 


 you can either hold the 8 (Bb) or play it real fast


 


 


 Verse 2 is just like the first Verse.


 


 


 End The second & 3chorus like this:


 


 | 1 + 2 + 3 + 4 + | 1 + 2 + 3 + 4 + |


 _______________________________________________________


 

 
 Eb|-------------------------|-------------------------|
 Bb|-------------------------|-------------------------|
 Gb|-------------------------|-------------------------|
 Db|-12----------12----12-12-|----------12-12----12-x--|
 Ab|-10----------10----10-10-|----------10-10----10-x--|
 Db|-10----------10----10-13-|----------13-13----13-x--|

 


 


 


 | 1 + 2 + 3 + 4 + | 1 + 2 + 3 + 4 + |


 _______________________________________________________


 

 
 Eb|-------------------------|-------------------------|
 Bb|-------------------------|-------------------------|
 Gb|-------------------------|----------------------2--|
 Db|-3-------(3)-3-----3-(0)-|----------0--0-----0--2--|
 Ab|-3-------(3)-3-----3--0--|----------0--0-----0--0--|
 Db|-3-------(3)-3-----3--0--|----------0--0-----0--0--|

 


 


 


 


 


 Breakdown: Jeez, everything I found for this on the internet


 was wrong, so this is 100% correct!


 


 


 | 1 + 2 + 3 + 4 + | 1 + 2 + 3 + 4 + |


 _______________________________________________________


 

 
 Eb|-------------------------|-------------------------|
 Bb|-------------0-------|-------------------------|
 Gb|-------------------------|----12-------------------|
 Db|----9--------------------|----------x--10----------|
 Ab|----------0--------0-----|-------12----------------|
 Db|-7-----------------------|-------------------------|

 


 


 


 | 1 + 2 + 3 + 4 + | 1 + 2 + 3 + 4 + |


 _______________________________________________________


 

 
 Eb|-------------------------|-------------------------|
 Bb|-------------------------|-------------------------|
 Gb|-------0-----------------|-------0-----------------|
 Db|----7--------------------|----7--------------------|
 Ab|-8-----------------------|-8-----------------------|
 Db|-------------9-h10p9-----|-------------9-h10p9-----|

 


 


 


 Play this 5x, end it like this:


 


 


 | 1 + 2 + 3 + 4 + | 1 + 2 + 3 + 4 + |


 _______________________________________________________


 

 
 Eb|-------------------------|-------------------------|
 Bb|-------------------------|-------------------------|
 Gb|-------------0-----------|-------------------------|
 Db|-------7-----------------|-------7-----------------|
 Ab|-8-----------------------|-8-----------------------|
 Db|-------------------------|-------------9-----------|

 


 


 


 


 Outro: Play the verse riff 6 times, end the song like this:


 


 | 1 + 2 + 3 + 4 + |


 _____________________________


 

 
 Eb|-------------------------|
 Bb|-------------------------|
 Gb|-------------------------|
 Db|------4p3----4--4-----4--|
 Ab|-3--3-----3--3----(3)-3--|
 Db|-3--3-----3--------3--3--|


Important: The song above is NOT stored on the Chordie server. The original song is hosted at www.guitaretab.com. Chordie works as a search engine and provides on-the-fly formatting. Chordie does not index songs against artists'/composers' will. To remove this song please click here.

This song is displayed as text-only. Transposing and tuning is only available for chordpro-songs.
Rate #2 of 2 versions

Jango Player

Login - add to songbook

SHARE PAGE  




You need to log in to post comments