Guitar Tabs, Chords and Lyrics
Server problems seems to be fixed. Chordie has been experiencing problems with songs disappearing. These issues now seems to be fixed, but still verifying the fix. If you find anything strange, please email admin@chordie.com.


Warm Safe Place  Staind

Song: Staind ? Warm Safe Place (Acoustic)
Tuning: Standard E (E-A-D-G-B-E)
Tab by: explicit_art
Email: traumaticxxx@yahoo.com
This tab is based on this Youtube video: http://www.youtube.com/watch?v=ZrnG03BUqjQ
He did a pretty good job on covering this song.
This tab is not 100% accurate, but just watch the video to get an idea in how to
play the strumming pattern.
=====================================================================
[Intro - play Riff-1 2x + Riff-2 1x + Riff-1 2x + Riff-3] 
[Verse - play Riff-1 4x] 
Another day inside my world
I'm married to you and this road
[Riff-3] 
[Pre-Cborus] 
A road that never let's me sleep
There's no way to escape these demons I am forced to keep...
[Cborus] 
And then I'll find you here
Through your eyes
Everything's clear
And I'm home
Inside your arms
But I'm alone for now
[Verse - play Riff-1 4x] 
I mean the best with what I say
It doesn't always sound that way
[Riff-3] 
[Pre-Cborus] 
I never learn to work things out
Cause in my family all we ever seem to do is shout...
[Cborus] 
And then I find you here
Through your eyes
Everything?s clear
And I'm home
Inside your arms
But I'm alone for now, alone for now...
[Bridge] 
And I try to sleep
The drugs I take are killing me
I think of you to ease my pain
But your so far
[Verse - play Riff-1 4x] 
Now it's time to say goodbye
I love you baby please don't cry
[Cborus] 
And then I'll find you here
Through your eyes
Everything?s clear
And I'm home
Inside your arms
But I'm alone for now, alone for now
[Outro - play Riff-1 4x] 
=====================================================================
[RIFF-1] [RIFF-2] 
[Esus4] [Em]  
 
 |--------------------| |------------------|
 |--0--------0--------| |------------------|
 |--2--------0--------| |------------------|
 |--2--------2--------| |------------------|
 |--2--------2--------| |-2h3p2r0----------|
 |--------------------| |---------2h3p2r0--|

Esus4 is played with 2 slow down stroke.
Em is play with up & down strums,
the first 2 are plays slow and
the rest is played kind of quickly.
In the intro, the RIFF-1 is played
twice & then RIFF-2 is played once,
and then Riff-1 is played twice again.
In the verse, RIFF-1 is played 4x.
[RIFF-3] 
A5 A(no3) G5 A#5
 
 E||--------------------------|
 B||--------------------------|
 G||--2-2---------------------|
 D||--2-2---------------------|
 A||--0-0-0-5-0-5/8-8-0-5-0---|
 E||------0-3-0-3/6-6-0-3-0---|

In the intro, it played:
A(no3),G5,A#5 = 1x
A5,A(no3),G5,A#5 = 3x
A5, Em (strum once and slow) = play once
Then it starts at the verse section.
In the transition between verse & pre-chorus,
A(no3),G5,A#5 = played once
And then start with the pre-chorus section.
[Pre-Cborus] 
[A5] [G5] [E5]  
 
 E||-------------------|
 B||-------------------|
 G||--2-2-0------------|
 D||--2-2-0-5-22222----|
 A||--0-0-0-5-22222----|
 E||--------3-00000----|

Play this section 4x
[Cborus] 
[G7M] [Dsus2] [Esus4] [Am]  
 
 |--2--------0--------0--------0--------|
 |--0--------3--------0--------1--------|
 |--0--------2--------2--------2--------|
 |--0--------0--------2--------2--------|
 |--------------------------------------|
 |--------------------------------------|

G7M & Esus4 are only played with 2 slow down strums.
Dsus2 & Am has a quick up&down strums.
Play the chorus sections 4 time & at
the end play Esus4 & Am once again.
[Bridge] 
[F5] [Dsus2]  
 
 ||-------------------------|--0---0---x---0---0-00000-||
 ||-------------------------|--3---3---x---3---3-33333-||
 ||-------------------------|--2---2---x---2---2-22222-||
 ||--3---3---x---3---3-33333|--0---0---x---0---0-00000-||
 ||--3---3---x---3---3-33333|--------------------------||
 ||--1---1---x---1---1-11111|--------------------------||

Play this section 4x.

Important: The song above is NOT stored on the Chordie server. The original song is hosted at www.guitaretab.com. Chordie works as a search engine and provides on-the-fly formatting. Chordie does not index songs against artists'/composers' will. To remove this song please click here.

Text color:
Chord color:
Chord grids: 
Font size:    
Page size: 

A5 Am Dsus2 E5 Em Esus4 F5 G5
Rate #0 of 2 versions

Login - add to songbook

SHARE PAGE  




You need to log in to post comments