Guitar Tabs, Chords and Lyrics
Major upgrade!! After one year development the new version of Chordie is now online! Please give feedback.


Mudshovel  Staind

Band - Staind
Song - Mudshovel
Gtr I, II (Ab Db Ab Db Gb Bb) - 'Barritone arr. for gtr'
Intro Verse 1
Q=108
[4/4]  
[Bass] Wx4 Wx8
 
 |------------||--------||

Interlude
Gtrs I, II
TP TP TP TP TP TP TP TP
[B] [B] [B] [B] [B] [B] [B] [B]  
 
 ||----------------|---------------|---------------|----------------||
 ||o---------------|---------------|---------------|---------------o||
 ||----------------|---------------|---------------|----------------||
 ||----------------|---------------|---------------|----------------||

||o-S===S===|=S===S===|=S===S===|=S===----o||
 
 ||----------------|---------------|---------------|----------------||

|-Riff A end Riff A-|
Random harmonics produced by lightly touching 5th string and picking with 16th note rhythm
The 1 fret is actually the harmonic between the 1st and 2nd fret about 1.3 fret
Verse
Gtr II
W H. +E E W +W
 
 ||--------------|----------------------|------------|----------|
 ||o-------------|----------------------|------------|----------|
 ||--------------|----------------------|------------|----------|
 ||--------------|----------------------|---------|-()----|
 ||o-/--------|-------------------|------------|----------|
 ||--------------|---------()-----|------------|----------|

| |Fill 1 end Fill 1-|
| Gtr I
| >
| W +W W W
 
 ||--------------|----------------------|------------|----------|
 ||o-------------|----------------------|------------|----------|
 ||--------------|----------------------|------------|----------|
 ||--------------|----------------------|------------|----------|
 ||o-/--------|-()----------------|------------|----------|
 ||--------------|----------------------|------------|----------|

Gtr II
<
w h. +e e w +w
 
 |------------|--------------------|------------|----------|
 |------------|--------------------|------------|----------|
 |------------|--------------------|------------|----------|
 |------------|--------------------|---------|-()----|
 |---------|-----------------|------------|----------|
 |------------|-------()-----|------------|----------|

|fill 1a end fill 1a-|
gtrs i, ii
riff a x2
chorus
s e s e s s s s e e e h. +e e
 
 |-----------------------|-----------------|
 |-----------------------|-----------------|
 |-7-7-7-7-7-7---7-7-7-7-|-10-------(10)---|
 |-7-7-7-7-7-7---7-7-7-7-|-10-------(10)---|
 |-7-7-7-7-7-7---7-7-7-7-|-10-------(10)---|
 |-----------------------|---------------0-|

|-rhy fig 1
s e s e s s s s e e e h. +e e
 
 |-----------------------|---------------|
 |-----------------------|---------------|
 |-7-7-7-7-7-7---7-7-7-7-|---------------|
 |-7-7-7-7-7-7---7-7-7-7-|---------------|
 |-7-7-7-7-7-7---7-7-7-7-|-5-------(5)---|
 |-----------------------|-3-------(3)-0-|

end rhy fig 1-|
1.
s e s e s s s s e e e h. +e e s e s e s s s s e e e w
 
 |-----------------------|-----------------|-----------------------|------|
 |-----------------------|-----------------|-----------------------|------|
 |-7-7-7-7-7-7---7-7-7-7-|-10-------(10)---|-----------------------|------|
 |-7-7-7-7-7-7---7-7-7-7-|-10-------(10)---|-----------------------|------|
 |-7-7-7-7-7-7---7-7-7-7-|-10-------(10)---|-7-7-7-7-7-7---7-7-7-7-|-5----|
 |-----------------------|---------------0-|-5-5-5-5-5-5---5-5-5-5-|-3----|

|-rhy fig 1a end rhy fig 1a-|
---||
--o||
riff a ---||
---||
--o||
---||
bridge
2.
$
h. +e e e. s +e e +s e. e e 6x e. s +e e +s e. e e to coda
 
 |---------------||-------------------------||-----------------------||
 |---------------||o-----------------------o||-----------------------||
 |---------------||--7--0-(0)-6-(6)---------||-7--0-(0)-6-(6)--------||
 |---------------||--5--0-(0)-6-(6)---------||-5--0-(0)-6-(6)--------||
 |-5-------(5)---||o-5--0-(0)-6-(6)--------o||-5--0-(0)-6-(6)--------||
 |-3-------(3)-0-||-----------------0--3-0--||----------------0--3-1-||

interlude
e e q h w w w w
 
 |-------------|----------|----------|----------|------||
 |-------------|----------|----------|----------|------||
 |-------------|----------|----------|----------|------||
 |-------------|----------|----------|----------|------||
 |-------------|----------|----------|----------|------||
 |-0-----------|----------|----------|----------|------||

verse
gtr ii
fill 1 x3
fill 1a
chorus
gtrs i, ii
rhy fig 1
rhy fig 1a -> d.s. al coda
&
e. s +e e +s e. e e e e q h
 
 |-----------------------|-------------*|
 |-----------------------|-------------*|
 |-7--0-(0)-6-(6)--------|-------------*|
 |-5--0-(0)-6-(6)--------|-------------*|
 |-5--0-(0)-6-(6)--------|-------------*|
 |----------------0--3-1-|-0-----------*|


Important: The song above is NOT stored on the Chordie server. The original song is hosted at www.guitaretab.com. Chordie works as a search engine and provides on-the-fly formatting. Chordie does not index songs against artists'/composers' will. To remove this song please click here.

Text color:
Chord color:
Chord grids: 
Font size:    
Page size: 

B
Rate #1 of 2 versions

Jango Player

Login - add to songbook

SHARE PAGE  



You need to log in to post comments