Guitar Tabs, Chords and Lyrics
Major upgrade!! After one year development the new version of Chordie is now online! Please give feedback.


Epiphany   Staind

 
 db|------0-0-0-0--0--0-0--0-0--|-----0-0-0-0--0--0-0--0-0--|
 Ab|------0-0-0-0--0--0-0--0-0--|-----0-0-0-0--0--0-0--0-0--|
 Gb|------7-7-7-7-------7--7----|--7--7-7-7-7-------7--7----|
 Db|------7-7-7-7-------7--7----|--7--7-7-7-7-------7--7----|
 Ab|--0h2-----------------------|--5------------------------|
 Db|--0-------------------------|--5------------------------|

 


 


 (Play each progression twice, then repeat)


 


 


 Verse 1 (0:25)


 


 [d] [u] [d] [u] [d] [u] [u] [d] [d] [u] [d] [u] [d] [u] [d] [u] [u] [d] [d] [u]  

 
 db|------0-0-0-0--0--0-0--0-0--|-----0-0-0-0--0--0-0--0-0--|
 Ab|------0-0-0-0--0--0-0--0-0--|-----0-0-0-0--0--0-0--0-0--|
 Gb|------7-7-7-7-------7--7----|--7--7-7-7-7-------7--7----|
 Db|------7-7-7-7-------7--7----|--7--7-7-7-7-------7--7----|
 Ab|--0h2-----------------------|--5------------------------|
 Db|--0-------------------------|--5------------------------|

 


 Your words... Your face...


 I try... Your words...


 


 


 Chorus (0:51)


 


 [d] [u] [d] [u] [d] [u] [u] [d] [d] [u] [d] [u] [d] [u] [d] [u] [u] [d] [d] [u]  

 
 db|-----0--0--0--0----0----0--0----0--0--|-----0-0-0-0--0--0-0--0-0--|
 Ab|-----0--0--0--0----0----0--0----0--0--|-----0-0-0-0--0--0-0--0-0--|
 Gb|-11-11-11-11-11---11---11-11---11-11--|--7--7-7-7-7-------7--7----|
 Db|-11-11-11-11-11---11---11-11---11-11--|--7--7-7-7-7-------7--7----|
 Ab|--9-----------------------------------|--5------------------------|
 Db|--9-----------------------------------|--5------------------------|

 


 Oh, oh... head...


 Oh, oh... said...


 


 


 (1:17)


 (Repeat Intro)


 


 


 Verse 2 (1:28)


 


 [d] [u] [d] [u] [d] [u] [u] [d] [d] [u] [d] [u] [d] [u] [d] [u] [u] [d] [d] [u]  

 
 db|------0-0-0-0--0--0-0--0-0--|-----0-0-0-0--0--0-0--0-0--|
 Ab|------0-0-0-0--0--0-0--0-0--|-----0-0-0-0--0--0-0--0-0--|
 Gb|------7-7-7-7-------7--7----|--7--7-7-7-7-------7--7----|
 Db|------7-7-7-7-------7--7----|--7--7-7-7-7-------7--7----|
 Ab|--0h2-----------------------|--5------------------------|
 Db|--0-------------------------|--5------------------------|

 


 So I speak... my words...


 I smoke... and let...


 Cos I can't... I wanna...


 or dig... inside...


 


 


 (2:19)


 (Repeat Chorus)


 


 


 (2:46)


 


 [d] [u] [d] [u] [d] [u] [u] [d] [d] [u] [d] [u] [d] [u] [d] [u] [u] [d] [d] [u]  

 
 db|------0-0-0-0--0--0-0--0-0--|-----0-0-0-0--0--0-0--0-0--|
 Ab|------0-0-0-0--0--0-0--0-0--|-----0-0-0-0--0--0-0--0-0--|
 Gb|------7-7-7-7-------7--7----|--7--7-7-7-7-------7--7----|
 Db|------7-7-7-7-------7--7----|--7--7-7-7-7-------7--7----|
 Ab|--0h2-----------------------|--5------------------------|
 Db|--0-------------------------|--5------------------------|


Important: The song above is NOT stored on the Chordie server. The original song is hosted at www.guitaretab.com. Chordie works as a search engine and provides on-the-fly formatting. Chordie does not index songs against artists'/composers' will. To remove this song please click here.

This song is displayed as text-only. Transposing and tuning is only available for chordpro-songs.
Rate #8 of 12 versions

Jango Player

Login - add to songbook

SHARE PAGE  



You need to log in to post comments