Guitar Tabs, Chords and Lyrics
Major upgrade!! After one year development the new version of Chordie is now online! Please give feedback.


Destroy All  Static-X

DESTROY ALL
As recorded by Static-X
(From the 2003 Album SHADOW ZONE)
Words by Statix-X
Music by Static-X
Transcribed by Rob
Gtr I (A# F A# D# G C) - 'Wayne Static'
Gtr II (A# F A# D# G C) - 'Trip Rex Eisen'
Gtr III (A# F A# D# G C) - 'Guitar 3'
Intro
Q=126
[4/4] Gtr I
E E E E E E E E E E E E E E E E E E E E E E E E E E E E E E Q
 
 |-----------------|-----------------|-----------------|-----------------|
 |-----------------|-----------------|-----------------|-----------------|
 |-----------------|-----------------|-----------------|-----------------|
 |-----------------|-----------------|-----------------|-----------------|
 |-----------------|-----------------|-----------------|-----------------|
 |-2-2-3-0-2-2-3-0-|-2-2-3-0-2-2---2-|-2-2-3-0-2-2-3-0-|-2-2-3-0-2-2-----|

Gtrs I, II
E E E E E E E E E E E E E E E E E E E E E E E E E E E E E E Q
 
 ||------------------|-----------------|-----------------|------------------||
 ||o-----------------|-----------------|-----------------|-----------------o||
 ||------------------|-----------------|-----------------|------------------||
 ||------------------|-----------------|-----------------|------------------||
 ||o-2-2-3-0-2-2-3-0-|-2-2-3-0-2-2---2-|-2-2-3-0-2-2-3-0-|-2-2-3-0-2-2-----o||
 ||--2-2-3-0-2-2-3-0-|-2-2-3-0-2-2---2-|-2-2-3-0-2-2-3-0-|-2-2-3-0-2-2------||

Verse
E E E E E E E E E E E E E E E E E E E E E E E E E E E E E E Q
 
 ||------------------|-----------------|-----------------|------------------||
 ||o-----------------|-----------------|-----------------|-----------------o||
 ||------------------|-----------------|-----------------|------------------||
 ||------------------|-----------------|-----------------|------------------||
 ||o-2-2-3-0-2-2-3-0-|-2-2-3-0-2-2---2-|-2-2-3-0-2-2-3-0-|-2-2-3-0-2-2-----o||
 ||--2-2-3-0-2-2-3-0-|-2-2-3-0-2-2---2-|-2-2-3-0-2-2-3-0-|-2-2-3-0-2-2------||

E E E E E E E E E E E E E E E E E E E E E E E E E E E E E E Q
 
 |-----------------|-----------------|-----------------|----------------|
 |-----------------|-----------------|-----------------|----------------|
 |-----------------|-----------------|-----------------|----------------|
 |-----------------|-----------------|-----------------|----------------|
 |-----------------|-----------------|-----------------|----------------|
 |-2-2-3-0-2-2-3-0-|-2-2-3-0-2-2---2-|-2-2-3-0-2-2-3-0-|-2-2-3-0-2-2----|

E E E E E E E E E E E E E E E E E E E E E E E E E E E E E E Q
 
 ||------------------|-----------------|-----------------|------------------||
 ||o-----------------|-----------------|-----------------|-----------------o||
 ||------------------|-----------------|-----------------|------------------||
 ||------------------|-----------------|-----------------|------------------||
 ||o-2-2-3-0-2-2-3-0-|-2-2-3-0-2-2---2-|-2-2-3-0-2-2-3-0-|-2-2-3-0-2-2-----o||
 ||--2-2-3-0-2-2-3-0-|-2-2-3-0-2-2---2-|-2-2-3-0-2-2-3-0-|-2-2-3-0-2-2------||

Chorus
Gtr I
[E] [E] [E] [E] [E] [E] [E] [E]  
 
 ||--------------------------------------------------|
 ||o-------------------------------------------------|
 ||--------------------------------------------------|
 ||--------------------------------------------------|
 ||o--2-----2-----3-----0-----2-----2-----3-----0----|
 ||---2-----2-----3-----0-----2-----2-----3-----0----|

|
| Gtr II
| S S S S S S S S S S S S S S S S
 
 ||--12-12-12-12-12-12-12-12-12-12-12-12-12-12-12-12-|
 ||o-------------------------------------------------|
 ||---9--9--9--9--9--9--9--9--9--9--9--9--9--9--9--9-|
 ||--------------------------------------------------|
 ||o-------------------------------------------------|
 ||--------------------------------------------------|

[E] [E] [E] [E] [E] [E] [E] [E]  
 
 |--------------------------------------------------|
 |--------------------------------------------------|
 |--------------------------------------------------|
 |--------------------------------------------------|
 |--2-----2-----3-----0-----2-----2-----------2-----|
 |--2-----2-----3-----0-----2-----2-----------2-----|

|
| S S S S S S S S S S S S S S S S
 
 |-12-12-12-12-12-12-12-12-12-12-12-12-12-12-12-12--|
 |--------------------------------------------------|
 |--9--9--9--9--9--9--9--9--9--9--9--9--9--9--9--9--|
 |--------------------------------------------------|
 |--------------------------------------------------|
 |--------------------------------------------------|

[E] [E] [E] [E] [E] [E] [E] [E]  
 
 |-------------------------------------------------|
 |-------------------------------------------------|
 |-------------------------------------------------|
 |-------------------------------------------------|
 |--2-----2-----3-----0-----2-----2-----3-----0----|
 |--2-----2-----3-----0-----2-----2-----3-----0----|

|
| S S S S S S S S S S S S S S S S
 
 |-11-11-11-11-11-11-11-11-11-11-11-11-11-11-11-11-|
 |-------------------------------------------------|
 |--8--8--8--8--8--8--8--8--8--8--8--8--8--8--8--8-|
 |-------------------------------------------------|
 |-------------------------------------------------|
 |-------------------------------------------------|

E E E E E E Q
 
 |--------------------------------------------------||
 |-------------------------------------------------o||
 |--------------------------------------------------||
 |--------------------------------------------------||
 |--2-----2-----3-----0-----2-----2----------------o||
 |--2-----2-----3-----0-----2-----2-----------------||

|
| S S S S S S S S S S S S S S S S
 
 |-11-11-11-11-11-11-11-11-11-11-11-11-11-11-11-11--||
 |-------------------------------------------------o||
 |--8--8--8--8--8--8--8--8--8--8--8--8--8--8--8--8--||
 |--------------------------------------------------||
 |-------------------------------------------------o||
 |--------------------------------------------------||

Bridge
Gtrs I, II
E E E E E E E E E E E E E E E E E E E E E E E E E E E E E E Q
 
 |-----------------|-----------------|-----------------|----------------|
 |-----------------|-----------------|-----------------|----------------|
 |-----------------|-----------------|-----------------|----------------|
 |-----------------|-----------------|-----------------|----------------|
 |-----------------|-----------------|-----------------|----------------|
 |-2-2-3-0-2-2-3-0-|-2-2-3-0-2-2---2-|-2-2-3-0-2-2-3-0-|-2-2-3-0-2-2----|

Gtr I
[E] [E] [E] [E] [E] [E] [E] [E] [E] [E] [E] [E] [E] [E] [E] [E]  
 
 ||----------------------|---------------------|
 ||o---------------------|---------------------|
 ||----------------------|---------------------|
 ||----------------------|---------------------|
 ||o-2--2-3--0-2--2-3--0-|-2--2-3--0-2--2----2-|
 ||--2--2-3--0-2--2-3--0-|-2--2-3--0-2--2----2-|

|
| Gtr II
| E E E E E E E E E E E E E E E E
 
 ||----11---11---11---11-|---11---11---11---11-|
 ||o---------------------|---------------------|
 ||-----8----8----8----8-|----8----8----8----8-|
 ||----------------------|---------------------|
 ||o---------------------|---------------------|
 ||----------------------|---------------------|

E E E E E E E E E E E E E E Q
 
 |---------------------|---------------------||
 |---------------------|--------------------o||
 |---------------------|---------------------||
 |---------------------|---------------------||
 |-2--2-3--0-2--2-3--0-|-2--2-3--0-2--2-----o||
 |-2--2-3--0-2--2-3--0-|-2--2-3--0-2--2------||

|
| E E E E E E E E E E E E E E Q
 
 |---11---11---11---11-|---11---11---11------||
 |---------------------|--------------------o||
 |----8----8----8----8-|----8----8----8------||
 |---------------------|---------------------||
 |---------------------|--------------------o||
 |---------------------|---------------------||

[E] [E] [E] [E] [E] [E] [E] [E]  
 
 ||--------------------------------------------------|
 ||o-------------------------------------------------|
 ||--------------------------------------------------|
 ||--------------------------------------------------|
 ||o--2-----2-----3-----0-----2-----2-----3-----0----|
 ||---2-----2-----3-----0-----2-----2-----3-----0----|

|
| S S S S S S S S S S S S S S S S
 
 ||--12-12-12-12-12-12-12-12-12-12-12-12-12-12-12-12-|
 ||o-------------------------------------------------|
 ||---9--9--9--9--9--9--9--9--9--9--9--9--9--9--9--9-|
 ||--------------------------------------------------|
 ||o-------------------------------------------------|
 ||--------------------------------------------------|

[E] [E] [E] [E] [E] [E] [E] [E]  
 
 |--------------------------------------------------|
 |--------------------------------------------------|
 |--------------------------------------------------|
 |--------------------------------------------------|
 |--2-----2-----3-----0-----2-----2-----------2-----|
 |--2-----2-----3-----0-----2-----2-----------2-----|

|
| S S S S S S S S S S S S S S S S
 
 |-12-12-12-12-12-12-12-12-12-12-12-12-12-12-12-12--|
 |--------------------------------------------------|
 |--9--9--9--9--9--9--9--9--9--9--9--9--9--9--9--9--|
 |--------------------------------------------------|
 |--------------------------------------------------|
 |--------------------------------------------------|

[E] [E] [E] [E] [E] [E] [E] [E]  
 
 |-------------------------------------------------|
 |-------------------------------------------------|
 |-------------------------------------------------|
 |-------------------------------------------------|
 |--2-----2-----3-----0-----2-----2-----3-----0----|
 |--2-----2-----3-----0-----2-----2-----3-----0----|

|
| S S S S S S S S S S S S S S S S
 
 |-11-11-11-11-11-11-11-11-11-11-11-11-11-11-11-11-|
 |-------------------------------------------------|
 |--8--8--8--8--8--8--8--8--8--8--8--8--8--8--8--8-|
 |-------------------------------------------------|
 |-------------------------------------------------|
 |-------------------------------------------------|

E E E E E E Q
 
 |--------------------------------------------------||
 |-------------------------------------------------o||
 |--------------------------------------------------||
 |--------------------------------------------------||
 |--2-----2-----3-----0-----2-----2----------------o||
 |--2-----2-----3-----0-----2-----2-----------------||

|
| S S S S S S S S S S S S S S S S
 
 |-11-11-11-11-11-11-11-11-11-11-11-11-11-11-11-11--||
 |-------------------------------------------------o||
 |--8--8--8--8--8--8--8--8--8--8--8--8--8--8--8--8--||
 |--------------------------------------------------||
 |-------------------------------------------------o||
 |--------------------------------------------------||

Pre-Chorus
E E E E E E E E E E E E E E E E E E E E E E E E E E E E E E Q
 
 |-----------------|-----------------|-----------------|----------------|
 |-----------------|-----------------|-----------------|----------------|
 |-----------------|-----------------|-----------------|----------------|
 |-----------------|-----------------|-----------------|----------------|
 |-----------------|-----------------|-----------------|----------------|
 |-2-2-3-0-2-2-3-0-|-2-2-3-0-2-2---2-|-2-2-3-0-2-2-3-0-|-2-2-3-0-2-2----|

Out-Chorus
Gtr I
[E] [E] [E] [E] [E] [E] [E] [E]  
 
 ||--------------------------------------------------|
 ||o-------------------------------------------------|
 ||--------------------------------------------------|
 ||--------------------------------------------------|
 ||o--2-----2-----3-----0-----2-----2-----3-----0----|
 ||---2-----2-----3-----0-----2-----2-----3-----0----|

|
| Gtr II
| S S S S S S S S S S S S S S S S
 
 ||--12-12-12-12-12-12-12-12-12-12-12-12-12-12-12-12-|
 ||o-------------------------------------------------|
 ||---9--9--9--9--9--9--9--9--9--9--9--9--9--9--9--9-|
 ||--------------------------------------------------|
 ||o-------------------------------------------------|
 ||--------------------------------------------------|

|
| Gtr III
| S S S S S S S S S S S S S S S S
 
 ||--15----------------------15----------------------|
 ||o----13-12----13-12----------13-12----13-12-------|
 ||-----------15-------15-13----------15-------15-13-|
 ||--------------------------------------------------|
 ||o-------------------------------------------------|
 ||--------------------------------------------------|

[E] [E] [E] [E] [E] [E] [E] [E]  
 
 |------------------------------------------------|
 |------------------------------------------------|
 |------------------------------------------------|
 |------------------------------------------------|
 |--2-----2-----3-----0-----2-----2-----------2---|
 |--2-----2-----3-----0-----2-----2-----------2---|

|
| S S S S S S S S S S S S S S S S
 
 |-12-12-12-12-12-12-12-12-12-12-12-12-12-12-12-12|
 |------------------------------------------------|
 |--9--9--9--9--9--9--9--9--9--9--9--9--9--9--9--9|
 |------------------------------------------------|
 |------------------------------------------------|
 |------------------------------------------------|

|
| S S S S S S S S S S S S S S S S
 
 |-15----------------------15---------------------|
 |----13-12----13-12----------13-12----13-12------|
 |----------15-------15-13----------15-------15-13|
 |------------------------------------------------|
 |------------------------------------------------|
 |------------------------------------------------|

[E] [E] [E] [E] [E] [E] [E] [E]  
 
 |-------------------------------------------------|
 |-------------------------------------------------|
 |-------------------------------------------------|
 |-------------------------------------------------|
 |--2-----2-----3-----0-----2-----2-----3-----0----|
 |--2-----2-----3-----0-----2-----2-----3-----0----|

|
| S S S S S S S S S S S S S S S S
 
 |-11-11-11-11-11-11-11-11-11-11-11-11-11-11-11-11-|
 |-------------------------------------------------|
 |--8--8--8--8--8--8--8--8--8--8--8--8--8--8--8--8-|
 |-------------------------------------------------|
 |-------------------------------------------------|
 |-------------------------------------------------|

|
| S S S S S S S S S S S S S S S S
 
 |-15----------------------15----------------------|
 |----13-12----13-12----------13-12----13-12-------|
 |----------15-------15-13----------15-------15-13-|
 |-------------------------------------------------|
 |-------------------------------------------------|
 |-------------------------------------------------|

E E E E E E Q
 
 |-----------------------------------||
 |----------------------------------o||
 |-----------------------------------||
 |-----------------------------------||
 |--2-----2-----3-----0----2-2------o||
 |--2-----2-----3-----0----2-2-------||

|
| S S S S S S S S E E Q
 
 |-11-11-11-11-11-11-11-11-----------||
 |----------------------------------o||
 |--8--8--8--8--8--8--8--8-----------||
 |-----------------------------------||
 |-------------------------2-2------o||
 |-------------------------2-2-------||

|
| S S S S S S S S H
 
 |-15--------------------------------||
 |----13-12----13-12----------------o||
 |----------15-------15-13-----------||
 |-----------------------------------||
 |----------------------------------o||
 |-----------------------------------||

Duration Legend
 
 ---------------
 W - whole; H - half; Q - quarter; E - 8th; S - 16th; T - 32nd; X - 64th; a - acciaccatura

+ - note tied to previous; . - note dotted; .. - note double dotted
Uncapitalized letters represent notes that are staccato (1/2 duration)
Irregular groupings are notated above the duration line
Duration letters will always appear directly above the note/fret number it represents the
duration for. Duration letters with no fret number below them represent rests. Multi-
bar rests are notated in the form Wxn, where n is the number of bars to rest for. Low
melody durations appear below the staff
Tablature Legend
 
 ----------------

h - hammer-on
p - pull-off
b - bend
pb - pre-bend
r - bend release (if no number after the r, then release immediately)
/\ - slide into or out of (from/to "nowhere")
s - legato slide
S - shift slide
- natural harmonic
(n) - artificial harmonic
n(n) - tapped harmonic
~ - vibrato
tr - trill
T - tap
TP - trem. picking
PM - palm muting
\n/ - tremolo bar dip; n = amount to dip
\n - tremolo bar down
n/ - tremolo bar up
/n\ - tremolo bar inverted dip
= - hold bend; also acts as connecting device for hammers/pulls
- volume swell (louder/softer)
x - on rhythm slash represents muted slash
o - on rhythm slash represents single note slash
Misc Legend
 
 -----------

| - bar
|| - double bar
||o - repeat start
o|| - repeat end
*| - double bar (ending)
: - bar (freetime)
$ - Segno
& - Coda
Tempo markers - = BPM(8/16=s8/s16), where s8 = swing 8ths, s16 = swing 16ths
***************************************************************************************
* Generated using Power Tab Editor by Brad Larsen - http://powertab.guitarnetwork.org *
***************************************************************************************

Important: The song above is NOT stored on the Chordie server. The original song is hosted at www.guitaretab.com. Chordie works as a search engine and provides on-the-fly formatting. Chordie does not index songs against artists'/composers' will. To remove this song please click here.

Text color:
Chord color:
Chord grids: 
Font size:    
Page size: 

E
Rate #1 of 1 versions

Jango Player

Login - add to songbook

SHARE PAGE  



You need to log in to post comments