Guitar Tabs, Chords and Lyrics
Major upgrade!! After one year development the new version of Chordie is now online! Please give feedback.


A Month Dead  Stephen Lynch

transcribed by Alex Coulombe
This is my first tab. I've been getting into Stephen Lynch lately, learning
all his songs and I couldn't find this one...so guess what, I decided to
figure it out on my own. So here it is, in all it's glory, his tribute to
necropheliacs. E-mail if you have any questions...kinkabobba@hotmail.com
oh, and don't take him too seriously...
This TAB transcription was created using TAB MASTER version 1.0
If you enjoy using this program, please consider telling the author
about it: Ofir Zwebner, e-mail: ofirz1@ccsg.tau.ac.il
snail-mail: Ehoud 10, Tel Aviv, 69936, Israel
This program is freeware, but it took me some work to make it, so
your financial contribution is welcome.
 
 --------------------------------------------------------------------

INTRO
 
 e:---0--------0--------0-|----0--------0--------0-|----0--------0--------0-|
 B:------0--------0-------|-------0--------0-------|-------0--------0-------|
 G:---------2--------2----|----------2--------2----|----------2--------2----|
 D:2----------------------|-2----------------------|------------------------|
 A:-----------------------|------------------------|-3~---------------------|
 E:-----------------------|------------------------|------------------------|
 e:--0-------0--------0-|----0--------0-------0-|----0--------0-------0-|
 B:----0--------0-------|-------0--------0------|-------0--------0------|
 G:-------2--------2----|----------2--------2---|----------2--------2---|
 D:---------------------|-----------------------|-----------------------|
 A:-2~------------------|-0~--------------------|-0---------------------|
 E:---------------------|-----------------------|-----------------------|
 e:---0--------0--------0--|----0--------0--------0--|
 B:------0--------0--------|-------0--------0--------|
 G:---------2--------2-----|----------2--------2-----|
 D:------------------------|-------------------------|
 A:-3~---------------------|-2~----------------------|
 E:------------------------|-------------------------|

Pre-verse
[A] [G]  
 
 e:----0--------0---------0--|----0-----------0------|-0-------3--|
 B:-------0--------0---------|-------0-----------0---|-2-------3--|
 G:----------2--------2------|----------2-----------2|-2-------0--|
 D:--------------------------|-----------------------|-2-------0--|
 A:-0~-----------------------|-----------------------|-0-------2--|
 E:--------------------------|-1~----------3~--------|---------3--|

Verses Bridges (preverse)
A D F5 A C Bb A...G..
 
 e:-0-----2--------1------------0---|---------------0----------1----------|
 B:-2-----3--------1------------2---|---------------1----------3----------|
 G:-2-----2--------2------------2---|---------------0----------3----------|
 D:-2-----0--------3------------2---|---------------2----------3----------|
 A:-0--------------3------------0---|---------------3----------1----------|
 E:----------------1----------------|-------------------------------------|

I, lie next to her in the bed... ...that she's, dead, it's turns me on
Pre-intro/chorus?
[A5] [G5]  
 
 e:-5----------------------------3----------------|
 B:-5----------------------------3----------------|
 G:-6----------------------------4----------------|
 D:-7----------------------------5----------------|
 A:-7----------------------------5----------------|
 E:-5----------------------------3----------------|

She's a month dead and she's starting to smell
So the order is...
Intro (emphasize those bass notes...)
Pre-verse
Verse
bridge
chorus (we'll say...)
Intro
Pre-verse
Verse (with feeling! I prefer to use bar chords here)
Bridge
Intro (the outro chord is an A)... I love you

Important: The song above is NOT stored on the Chordie server. The original song is hosted at www.guitaretab.com. Chordie works as a search engine and provides on-the-fly formatting. Chordie does not index songs against artists'/composers' will. To remove this song please click here.

Text color:
Chord color:
Chord grids: 
Font size:    
Page size: 

A A5 G G5
Rate #1 of 3 versions

Jango Player

Login - add to songbook

SHARE PAGE  




You need to log in to post comments