Guitar Tabs, Chords and Lyrics
Server problems seems to be fixed. Chordie has been experiencing problems with songs disappearing. These issues now seems to be fixed, but still verifying the fix. If you find anything strange, please email admin@chordie.com.


Mr Writer  Stereophonics

OK, Ive done the electric guitar part (very memerable)--ive neva done a tab so
long-----well not that long!!lol
Anywayz here is the acoustic tab and chords for the song. Again I know this is
100% right (or should be) because this is how I play it and ive got the book!
So ha! all you hu doubt me!LOL.anywayz here it is eNjOy (its short as well---
unlike the electric version hee hee)
Intro:
Em9, Em, Em/D, Cmaj7,
Em, Em/D, Cmaj7
Verse:
[Em] You [Em/D]line 'em up look[Cmaj7] at your shoes, you hang names on your wall,
[Em] and you[Em/D] shoot them all.[Cmaj7]
[Em] You fly a_[Em/D]round in planes that bring you down to meet me who loves [Em]you
Like me [Em/D]crashing to the ground.[Cmaj7]
Bridge:
[Cmaj7]Are you so l[Em/D]onely?
You dont even [Cmaj7]know me,
but you'd like to s[Em/D]tone me.
Chorus:
[Em]Mr Writer,
why dont you tell it l[G]ike it is?
Why dont you tell it like it r[A]eally is?
Before you go on home.
[C]Verse 2:
[Em] I used to t[Em/D]reat you right, give[Cmaj7] you my time,
but I turned my back on [Em]you, then you do what you [Cmaj7]want.
[Em] You've[Em/D] just enough in[Cmaj7] my view education to perform,
[Em] I'd like[Em/D] to shoot you all.[Cmaj7]
Bridge 2:
[Cmaj7]And then you[Em/D] go home, with you on [Cmaj7]your own,
what do you r[Em/D]eally know?
Chorus:
[Em]Mr Writer,
Why dont you tell it li[G]ke it is?
Why dont you tell it like it r[A]eally is?
Before you go on home.
Em, Em/D, Cmaj7, Em, Em/D
Instrumental
Cmaj7, Em, Em/D Cmaj7
Bridge 3:
[Cmaj7]And when you[Em/D] go home,
with you on [Cmaj7]your own,
what do you [Em/D]even know?
Chorus:
[Em]Mr Writer,
Why dont you tell it l[G]ike it is?
Why dont you tell it like it re[A]ally is?
[A]Before you go on home___
[Em]Mr writer,
Why dont you tell it like it re[G]ally is?
Why dont you tell it like it a[A]lways is?
C(Play the C while Kellys holding on home)
Before you go home___
(Not sure about this last bit, it gets kinda muddled but this should be right)
[Em]Mr Writer,
Why dont you tell it like it rea[G]lly is?
Why dont you tell it like it a[A]lways is?
Before you go on home?
Outro
[Em9]  
 
 --------2----2--2----2--2-----------|------2-----2--2-----2--2-----------|
 --------0----0--0----0--0----3----0-|------0-----0--0-----0--0----3----0-|
 --------0----0--0----0--0----0----0-|------0-----0--0-----0--0----0----0-|
 --------2----2--2----2--2----2------|------2-----2--2-----2--2----2------|
 -2----------------------------------|-2----------------------------------|
 -0----------------------------------|-0----------------------------------|
 --------2----2--2----2--2-----------|------2-----2--2-----2--2-----------|
 --------0----0--0----0--0----3----0-|------0-----0--0-----0--0----3----0-|
 --------0----0--0----0--0----0----0-|------0-----0--0-----0--0----0----0-|
 --------2----2--2----2--2----2------|------2-----2--2-----2--2----2------|
 -2----------------------------------|-2----------------------------------|
 -0----------------------------------|-0----------------------------------|
 --------0-----0-----0----0----|-0-----0----0----------0----|
 -----0--0---0---------0-----0-|----0--0--0-----0-0--0------|
 -----0------------------------|--------------------------0-|
 --2---------------------------|--------------------------2-|
 --2---------------------------|----------------------------|
 --0---------------------------|----------------------------|

There you go! Now you have both versions! electric and acoustic guitar (so dont im
neva nice 2 u) lol. anywayz hope u like it remember to rate plz! and leave any
comments if ya want! thanx, and if u hav neprobs u no where i am!!lol. L8RS!!
x

Important: The song above is NOT stored on the Chordie server. The original song is hosted at www.guitaretab.com. Chordie works as a search engine and provides on-the-fly formatting. Chordie does not index songs against artists'/composers' will. To remove this song please click here.

Text color:
Chord color:
Chord grids: 
Font size:    
Page size: 

A C Cmaj7 Em Em/D Em9 G
Rate #1 of 14 versions

Jango Player

Login - add to songbook

SHARE PAGE  



You need to log in to post comments