Guitar Tabs, Chords and Lyrics
Major upgrade!! After one year development the new version of Chordie is now online! Please give feedback.


Hard Core Troubadour  Steve Earle

This is a awsome track my personal fav off of I feel alright
So i thought what the hell i'll put it up...so i guess thats it
Intro:
 
 |----------------------|
 |---3-3-3--5-3-1--3----|
 |---4-4-4--5-4-2--4----|
 |----------------------|
 |----------------------|
 |----------------------|

Bridge 1:
 
 |---------------|
 |---0-1-3-1-0---|
 |---0-2-4-2-0---| Em D
 |---------------|
 |---------------|
 |---------------|

Intro/Bridge 2:
[G] [C] [G] [Em] [D]  
Verse 1:
[G] [C] [D]  
Girl, well it's too late to lock your door
[G] [C] [D] 
He[G]'s out there hollerin', "Darlin, don't you love me
no more"
You always l[C]et him [D]in before, now d[G]idn't ya' [Em] [D]
[C] [D] [G] 
He's[C] just singing the same old song that he always
sang before
[C]He's the last of the h[D]ard-core troubadours
G+BRIDGE (2X)
Verse 2:
G[G]irl, better f[C]igure out wh[D]ich is which
[G]Wherefore art thou R[C]omeo you s[D]on of a b[G]itch
[C] [D] [G]  
You[Em]'d [D]just as soon fight as switch, now wouldn't ya'
[C] [D] [G] 
He come to make lo[C]ve on your satin sheets, wake up on
your living room floor
[C]He's the last of the h[D]ard-core troubadours
G+BRIDGE (2X)
Chorus 1:
[C]He's the last of the [D]all-night, do-right,
[G]stand beneath your w[C]indow 'til daylight,
[C]He's the last of the h[D]ard-core troubad[Em]ours
[D]Tell me what you're waitin' for
Guitar Solo:
 
 |----------------------------------------------|
 |------6-6-6-6-5-3-5-3-0-0-0-1-6-6-6-6-5-3-5---|
 |------0-0-0-0-0-0-0-0-0-0-0-0-0-0-0-0-0-0-0---| 

[Em] [D]  
 
 |------0-0-0-0-0-0-0-0-0-0-0-0-0-0-0-0-0-0-0---|
 |----------------------------------------------|
 |----------------------------------------------|

Verse 3:
[G] [C] [D]  
Girl, better figure out what you're gonna do
[G] [C] [D] [G] 
When he moves off again and he leaves you lonely and
blue
[C] [D]  
[Em]You[D] knew he's just passin' through, now didn't ya'
[C] [D] 
You ca[G]n just tell yo[C]urself it's the last time baby,
like you always did before
[C]He's the last of the h[D]ard-core troubadours
G+Bridge (2X)
Ending:
 
 |---------------|
 |---0-1-3-1-0---|
 G |---0-2-4-2-0---| G
 |---------------|
 |---------------|
 |---------------|

Tabbed by Doc

Important: The song above is NOT stored on the Chordie server. The original song is hosted at www.guitaretab.com. Chordie works as a search engine and provides on-the-fly formatting. Chordie does not index songs against artists'/composers' will. To remove this song please click here.

Text color:
Chord color:
Chord grids: 
Font size:    
Page size: 

C D Em G
Rate #2 of 2 versions

Login - add to songbook

SHARE PAGE  




You need to log in to post comments