Guitar Tabs, Chords and Lyrics
Server problems seems to be fixed. Chordie has been experiencing problems with songs disappearing. These issues now seems to be fixed, but still verifying the fix. If you find anything strange, please email admin@chordie.com.


Revolution Cry  Steve Fee

Capo 3 to play along the Passion Sacred Revolution Version.
The chords I use are a little different. You could play the regular style chords
but I like the Dave Matthews style like this.
Chords:
[C#m]  
 
 e|----------------------------|
 B|----------------------------|
 G|--4-------------------------|
 D|--2-------------------------|
 A|--4-------------------------|
 E|----------------------------|

[A]  
 
 e|----------------------------|
 B|----------------------------|
 G|-------4--------------------|
 D|-------2--------------------|
 A|----------------------------|
 E|----------------------------|

[E]  
 
 e|----------------------------|
 B|----------------------------|
 G|--4-------------------------|
 D|--2-------------------------|
 A|--2-------------------------|
 E|----------------------------|

[B]  
 
 e|----------------------------|
 B|----------------------------|
 G|-----------4----------------|
 D|-----------4----------------|
 A|---------2------------------|
 E|----------------------------|

[F#m]  
 
 e|----------------------------|
 B|----------------------------|
 G|--2-------------------------|
 D|--4-------------------------|
 A|--4-------------------------|
 E|----------------------------|

Verse 1:
[C#m]When passion[A] takes on a[E] purpose
[C#m]And searching[A] ones embrace the [E]light
[C#m]When skeptics find [A]themselves down on their[E] knees
You'll know it's here
[C#m]When you hear a[A] sound as loud as[E] thunder
[C#m]And you hear a[A] cry that shakes the ground[E] beneath you
[C#m]When you hear a [A]shout that shatters the[E] darkness
You'll know it's here
Pre Chorus:
[F#m]When the lost find a name wort[C#m]h believing in
[A]And the fallen get back onto their [B]feet
[F#m]And the broken start t[C#m]o dream again
[A]And the sound of praise fills these [B]streets
You'll know it's here
Chorus:
[E]Rev[B]olu[C#m]tion
Can you [A]feel it
[E]Revol[B]ution[A] cry
[E]Rev[B]olu[C#m]tion
Can you [A]hear it
[E]Revol[B]ution[A] cry
[E]And I [B]believe it
[C#m]And I be[A]lieve it
Verse 2: (Same as verse 1)
How long do we have to wait
And how long will we stay silent
When will this weeping generation dance again
Oh God when will
The truth be restored

Important: The song above is NOT stored on the Chordie server. The original song is hosted at www.guitaretab.com. Chordie works as a search engine and provides on-the-fly formatting. Chordie does not index songs against artists'/composers' will. To remove this song please click here.

Text color:
Chord color:
Chord grids: 
Font size:    
Page size: 

A B C#m E F#m
Rate #1 of 3 versions

Jango Player

Login - add to songbook

SHARE PAGE  



You need to log in to post comments