Guitar Tabs, Chords and Lyrics
Server problems seems to be fixed. Chordie has been experiencing problems with songs disappearing. These issues now seems to be fixed, but still verifying the fix. If you find anything strange, please email admin@chordie.com.


Addicted  Stevie Hoang

Just so that Stevie Hoang can be recognised as an official artist, this is his MySpace:
http://www.myspace.com/steviehoang
 
 -------------------------------------------------------------------------------

ADDICTED - Stevie Hoang
 
 -------------------------------------------------------------------------------

July 22nd 2010
Tabbed by: Wayne S
Tuning: Standard EADGBE
Capo: 1
F: 133211
G: 320033 or 355433
Am: 002210 or 577555
Dm7: x00211 or x57565
Intro can be played as the outro too after the 2 last choruses are repeated. Chorus can
be played by chord-strumming, and verses can be played by finger-picking (similar to the
and vice versa.
The chorus section shows the cues for singing/picking. The number in the squared
should line up with the numbers on the strings. As an example, you pick the low E string AND B
on the first fret
at "do you still THINK of me" from the first line of the chorus is sung.
For the chorus, if you wish to strum chords instead, then replace the numbers as follows:
[1], [4], [7], [11] -> F
[2], [5], [8], [12] -> G
[3]. [6], [9] -> Am
[10] -> Dm7
Please leave any comments/ratings/corrections/suggestions.
[Intro]:
 
 e|------3-------------------------------3---------------1-0-----------3--------|
 B|1-0-----3-1-0---1-0---------3-1-1-0-----3-1-0---1-0-------3-1-1-0-----3-1-0--|
 G|----0---------0-----0-----0---------0---------0-----0-------------0---------0|
 D|-----------------------------------------------------------------------------|
 A|----------------0-------------------------------0----------------------------|
 E|1-------3-----------------------1-------3---------------------1-------3------|
 e|----------1-0---------1-0---------|
 B|1-0-----------1-----------1-----3-|
 G|----0---0-----------0-------------|
 D|----------------2-3---------2-3---|
 A|0---------------------------------|
 E|--------------1-----------1-----3-|

[Verse 1]:
[F]Since you went a[G]way
It's bee[Am]n one year two months
But it just don't [F]seem like yester[G]day
We were[Am], We were still together time has [F]passed and things have [G]changed so
[Am]Why do I feel this way
Cause your [Dm7]with somebody else
And I'm [F]with somebody [G]else but
[F] Whenever I [G]think about the [Am]love we had (it hurts so [F]bad)
[F] Whenever I [G]think about the [Am]love we made
[F] I said that [G]I'd be strong
[Am]Girl I really thought that I'd move on
Dm7 F G (quick change)
But still I find myself asking
[Cborus]:
 
 e|------3-------------------------------3---------------1-0-----------3--------|
 B|1-0-----3-1-0---1-0---------3-1-1-0-----3-1-0---1-0-------3-1-1-0-----3-1-0--|
 G|----0---------0-----0-----0---------0---------0-----0-------------0---------0|
 D|-----------------------------------------------------------------------------|
 A|----------------0-------------------------------0----------------------------|
 E|1-------3-----------------------1-------3---------------------1-------3------|

[1] [2] [3] [4] [5] [6] [7] [8] 
 
 e|----------1-0---------1-0---------|
 B|1-0-----------1-----------1-----3-|
 G|----0---0-----------0-------------|
 D|----------------2-3---------2-3---|
 A|0---------------------------------|
 E|--------------1-----------1-----3-|

[9] [10] [11] [12] 
[1] 
Do you still think of me
[2] [3] 
Like I think about you
[4] 
Do you still dream of me
[5] [6] 
Cause I can't sleep without you
[7] [8] 
Tell me if time should make a change
[9] 
Then why do I feel the same
[10] [11] 
Your love has got me addicted
[1] 
Said I don't know
[2] [3] 
When I'm with a chick and hittin it girl I call your name
[4] 
Said I don't know
[5] [6] 
When I be with somebody else I push them away
[7] [8] 
Tell me if time should make a change
[9] 
Then why do I feel the same
[10] [11] [12] 
I know I gotta move on but I'm so addicted to you
[Verse 2]:
[F]It's been long e[G]nough
Don't kno[Am]w why I'm still holding on
[F]If I had a [G]wish babe
[Am] I would turn back the hands of [F]time
Cause you [G]don't know what you [Am]got until it's gone
[Dm7] It's the reason why I'm [F]writing you this [G]song
Girl I'm [F]slippin[G], And I [Am]don't know what to do
Girl I ad[F]mit it[G], I'm [Am]sick over you
[F] Damn[G], I rea[Am]lised my mistake
My pride [Dm7]got in the way
I should have [F]begged you to [G]stay
[Repeat Cborus] 
[Bridge]:
[F] If you ever lost someone you [G]truly love
Let me hear you say [Am]yeah
Yeah, Say yeah, Yeah
[F] And if you lost someone you [G]truly need
Let me hear you say [Am]yeah
[Repeat Cborus] x2

Important: The song above is NOT stored on the Chordie server. The original song is hosted at www.guitaretab.com. Chordie works as a search engine and provides on-the-fly formatting. Chordie does not index songs against artists'/composers' will. To remove this song please click here.

Text color:
Chord color:
Chord grids: 
Font size:    
Page size: 

Am Dm7 F G
Rate #1 of 1 versions

Jango Player

Login - add to songbook

SHARE PAGE  



You need to log in to post comments