Guitar Tabs, Chords and Lyrics
Major upgrade!! After one year development the new version of Chordie is now online! Please give feedback.


Look at Little Sister  Stevie Ray Vaughan

LOOK AT LITTLE SISTER
As recorded by Stevie Ray Vaughan
(From the 2003 Album SOUL TO SOUL)
Words by Hank Ballard
Music by Stevie Ray Vaughan
Transcribed by guitargod175
Gtr I (Eb Ab Db Gb Bb Eb) - 'SRV'
Gtr II (Eb Ab Db Gb Bb Eb) - 'rhythm guitar'
Verse
Moderate Shuffle Q=112(8=s8)
[E]  
[4/4] Gtr I
W E E E E E E E E E E E E E E E E
 
 |----------||-----------------|-----------------|
 |----------||-----------------|-----------------|
 |----------||-----------------|-----------------|
 |----------||-----------------|-----------------|
 |----------||-2-2-4-0-2-2-4-0-|-2-2-4-0-2-2-4-0-|
 |----------||-0-0-0-0-0-0-0-0-|-0-0-0-0-0-0-0-0-|

[A7]  
 
 |---3---| |---3---|

E E E E E E E E Q a Q a Q a Q a Q a Q E E E E E E E E
 
 |-----------------|-----------------------|------------------|
 |-----------------|-----------------------|------------------|
 |-----------------|-----------------------|------------------|
 |---------------2-|---0h2-0h2-0h2-0h2-0h2-|-2-2-4-4-5-5-4-4--|
 |-2-2-4-0-2-2-4-2-|-----------------------|-0-0-0-0-0-0-0-0--|
 |-0-0-0-0-0-0-0---|-0---------------------|------------------|

[E]  
[E] [E] [E] [E] [E] [E] [E] [E] [E] [E] [E] [E] [E] [E] [E] [E] [E] [E] [E] [E] [E] [E] [E] [E]  
 
 |-----------------|-----------------|-----------------|
 |---------------0-|-------0---------|---------------0-|
 |---------0-0-0-0-|-------0---------|---------------0-|
 |-2-2-4-0-2-2-4-0-|-------0---------|---------------0-|
 |-0-0-0-0-0-0-0---|-2-2-4---2-2-4-0-|-2-2-4-0-2-2-2---|
 |-----------------|-0-0-0---0-0-0-0-|-0-0-0-0-0-0-0---|

[B7] [A7] [E] 
[E] [E] [E] [E] [E] [E] [E] [E] [E] [E] [E] [E] [E] [E] [E] [E] [E] [E] [E] [E] [E] [E] [E] [E]  
 
 |-----------------|-----------------|-------0-------0-|
 |-----------------|---------------0-|-------0-------0-|
 |-----------------|---------0-0-0-0-|-------0-------0-|
 |-4-4-6-5-4-4-6-0-|-2-2-4-1-2-2-4-1-|-----------------|
 |-0-0-0-0-0-0-0-0-|-0-0-0-0-0-0-0---|-2-2-4---2-2-4---|
 |-----------------|-----------------|-0-0-0---0-0-0---|

Verse
[E]  
 
 |---3---| |---3---|

Q a Q a Q a Q a Q a Q E E E E E E E E E E E E E E E E
 
 |-----------------------||-----------------|------------------|
 |-----------------------||-----------------|------------------|
 |-----------------------||-----------------|------------------|
 |---0h2-0h2-0h2-0h2-0h2-||-------2---------|-------2----------|
 |-----------------------||-2-2-4-2-2-2-4-0-|-2-2-4-2-2-2-4-0--|
 |-0---------------------||-0-0-0---0-0-0-0-|-0-0-0---0-0-0-0--|

[E7] [A]  
 
 |---3---|

E E E E E E E E E E E E Q a Q a Q E E E E E E E E
 
 |-----------------|-------------------|-----------------|
 |-----------------|-------------------|-----------------|
 |-----------------|-------------------|-----------------|
 |-------2---------|-0-0-0-0-0-0h2-0h2-|-2-2-4-4-5-5-4-4-|
 |-2-2-4-2-2-2-4-0-|-2-2-2-2-2---------|-0-0-0-0-0-0-0-0-|
 |-0-0-0---0-0-0-0-|-0-0-0-0-0---------|-----------------|

[E]  
[E] [E] [E] [E] [E] [E] [E] [E] [E] [E] [E] [E] [E] [E] [E] [E] [E] [E] [E] [E] [E] [E] [E] [E]  
 
 |-----------------|-------0---------|-----------------|
 |---------------0-|-------0-------0-|---------------0-|
 |---------0-0-0-0-|-------0-------0-|---------------0-|
 |-2-2-4-0-2-2-4-0-|---------------0-|---------------0-|
 |-0-0-0-0-0-0-0---|-2-2-4---2-2-4---|-2-2-4-0-2-2-4---|
 |-----------------|-0-0-0---0-0-0---|-0-0-0-0-0-0-0---|

[B7] [A7]  
[E] [E] [E] [E] [E] [E] [E] [E] [E] [E] [E] [E] [E] [E] [E] [E] [E] [E] [E] [E] [E] [E] [E] [E]  
 
 |-----------------|-----------------|-----------------|
 |-----------------|---------------0-|-------0---------|
 |-----------------|---------0-0-0-0-|-------0---------|
 |-4-4-6-5-4-4-6-0-|-2-2-4-0-2-2-4-0-|-------0---------|
 |-0-0-0-0-0-0-0-0-|-0-0-0-0-0-0-0---|-2-2-4---2-2-4-0-|
 |-----------------|-----------------|-0-0-0---0-0-0-0-|

Verse
 
 |---3---| |---3---|

Q a Q a Q a Q a Q a Q E E Q Q Q E E Q Q Q
 
 |-----------------------||-----------------|----------------|
 |-----------------------||-----------------|----------------|
 |-----------------------||-----------------|----------------|
 |-----------------------||-----------------|----------------|
 |-2-0h2-0h2-0h2-0h2-0h2-||-----------1tr2--|-----------1tr2-|
 |-0---------------------||-0---------------|-0--------------|

E E Q H W [A7]E E E E E E E E
 
 |-------------|----------|-----------------|
 |-------------|----------|-----------------|
 |-------------|----------|-----------------|
 |-------------|----------|-2-2-4-4-5-5-4-0-|
 |-------------|----------|-0-0-0-0-0-0-0-0-|
 |-0-----------|----------|-----------------|

[E]  
[E] [E] [E] [E] [E] [E] [E] [E] [E] [E] [E] [E] [E] [E] [E] [E] [E] [E] [E] [E] [E] [E] [E] [E]  
 
 |-----------------|-----------------|-----------------|
 |---------------0-|-------0-------0-|---------------0-|
 |---------0-0-0-0-|-------0-------0-|---------------0-|
 |-2-2-4-0-2-2-4-0-|-------0-------0-|---------------0-|
 |-0-0-0-0-0-0-0---|-2-2-4---2-2-4---|-2-2-4-0-2-2-4---|
 |-----------------|-0-0-0---0-0-0---|-0-0-0-0-0-0-0---|

[E] [E] [E] [E] [E] [E] [E] [E] [E] [E] [E] [E] [E] [E] [E] [E] [E] [E] [E] [E] [E] [E] [E] [E]  
 
 |-----------------|-----------------|-----------------|
 |-----------------|---------------0-|-------0---------|
 |-----------------|---------0-0-0-0-|-------0---------|
 |-4-4-6-5-4-4-6-0-|-2-2-4-0-2-2-4-0-|-------0---------|
 |-0-0-0-0-0-0-0-0-|-0-0-0-0-0-0-0---|-2-2-4---2-2-4-0-|
 |-----------------|-----------------|-0-0-0---0-0-0-0-|

Sax Solo
[E]  
 
 |---3---| |---3---| |-3--|

Q a Q a Q a Q a Q a Q E E E E E E E E E E E E E E a +E E E
 
 |-----------------------||-----------------|---------------------------|
 |-----------------------||-----------------|---------------------------|
 |-----------------------||-----------------|---------------------------|
 |-----------------------||-------2---------|-----------------------2---|
 |-2-0h2-0h2-0h2-0h2-0h2-||-2-2-4-2-2-2-4-0-|-2-2-4---2-----------------|
 |-0---------------------||-0-0-0---0-0-0-0-|-0-0-0-0---0-3b5r(3)p0-----|

[E7] [A] |-3-|
[E] [E] [E] [E] [E] [E] [E] [E] [E] [E] [E] [E] [E] [E] [E] [E] [E] [E] [E] [E] [E] [E] [E] [E] [E]  
 
 |-----------------|-----------------|-------------------|
 |-----------------|-----------------|-------------------|
 |-----------------|-----------------|-----------------2-|
 |-----------------|-0-0-0-0-0-------|-2-2-4-0-2-2-------|
 |-2-2-4-0-2-2-4-0-|-2-2-2-2-2-------|-0-0-0-0-0-0-3h4---|
 |-0-0-0-0-0-0-0-0-|-0-0-0-0-0-0-3-4-|-------------------|

[E]  
[E] [E] [E] [E] [E] [E] [E] [E] [E] [E] [E] [E] [E] [E] [E] [E] [E] [E] [E] [E] [E] [E] [E] [E]  
 
 |-----------------|-----------------|-----------------|
 |---------------0-|-----------------|-----------------|
 |---------------0-|-----------------|---------------0-|
 |-2-2-4-0-2-2-4-0-|-----------------|---------------0-|
 |-0-0-0-0-0-0-0---|-2-2-4-0-2-2-4-0-|-2-2-4-0-2-2-4-0-|
 |-----------------|-0-0-0-0-0-0-0-0-|-0-0-0-0-0-0-0---|

[B7] [A] |-3-|[E]
[E] [E] [E] [E] [E] [E] [E] [E] [E] [E] [E] [E] [E] [E] [E] [E] [E] [E] [E] [E] [E] [E] [E] [E] [E]  
 
 |-----------------|-------------------|-----------------|
 |---------------0-|-------------------|-----------------|
 |---------------0-|-------------------|-----------------|
 |-4-4-0-1-4-4-7-0-|-2-2-----2---5p0-2-|-----------------|
 |-0-0-----0-0-0---|-0-0-3-4-0-0-------|-2-2-4-0-2-2-4-0-|
 |-----------------|-------------------|-0-0-0-0-0-0-0-0-|

Guitar Solo
N.C.
Gtr I
 
 |-------3-------| |---3----| |-----3------| |-------3-------|

H E Q E S +S E E S E. E E +E E S +S
[E] [E]  
 
 |----------------------------||-----------------12----12-------15b16-(15)---12-----------------12-|
 |----------------------------||------------12------15-------12----------------------------12------|
 |---------------4s========13-||-14b16-(14)-------------------------------------14b16-(14)---------|
 |----------------------------||-------------------------------------------------------------------|
 |----------------------------||-------------------------------------------------------------------|
 |----------------------------||-------------------------------------------------------------------|

|
| Gtr II
 
 | |---3---| |----3----|

| Q a Q a Q a Q a Q a Q E E E E E E E
[E]  
 
 |----------------------------||-------------------------------------------------------------------|
 |----------------------------||-------------------------------------------------------------------|
 |----------------------------||-------------------------------------------------------------------|
 |----------------------------||-------------------------------------------------------------------|
 |-2-0h2-0h2-0h2---0h2-0h2----||--2------------2-----4-----0-----2---------2-----4------------0----|
 |-0--------------------------||--0------------0-----0-----0-----0---------0-----0------------0----|
 |-------3-------| |-------3-------|

S +S E E E E S +S E E E E
 
 |-----------------12---------------------------0----0----|
 |------------12------15-12---15b17==(15)r(15)\-0----0----|
 |-14b16-(14)-------------------------------------4\-0----|
 |--------------------------------------------------------|
 |--------------------------------------------------------|
 |--------------------------------------------------------|

|
| E E E E E E E E
 
 |--------------------------------------------------------|
 |--------------------------------------------------------|
 |--------------------------------------------------------|
 |--------------------------------------------------------|
 |--2------------2-----4----0---------------2---2-4--0----|
 |--0------------0-----0----0---------------0---0-0--0----|
 |-------3-------| |-------3-------| |-------3-------| |-------3-------|

S +S E E S +S E E S +S E E S +S E E
 
 |------------12---12------------12---12------------12---12------------12---12-|
 |------------12---12-15b16-(15)------12-15b17-(15)-12---12-15b17-(15)-12---12-|
 |-14b16-(14)------------------------------------------------------------------|
 |-----------------------------------------------------------------------------|
 |-----------------------------------------------------------------------------|
 |-----------------------------------------------------------------------------|

|
| E E E E E E E E
 
 |-----------------------------------------------------------------------------|
 |-----------------------------------------------------------------------------|
 |-----------------------------------------------------------------------------|
 |-----------------------------------------------------------------------------|
 |--2------------2-----4------------0-----2------------2-----4------------0----|
 |--0------------0-----0------------0-----0------------0-----0------------0----|

[A]  
 
 |--3--| |3-| |3-| |3-|

S S Q E E E Q E E E Q E E E Q E E
 
 |-12----15---15-15s17-17---17-17s|=19-19---19-19s17-17---17-17----|
 |----12-15-----------------------|--------------------------------|
 |--------------------------------|--------------------------------|
 |--------------------------------|--------------------------------|
 |--------------------------------|--------------------------------|
 |--------------------------------|--------------------------------|

|
| E E E E E E E E E E E E E E E E
 
 |--------------------------------|--------------------------------|
 |--------------------------------|--------------------------------|
 |--------------------------------|--------------------------------|
 |--------------------------------|--2----2--------2----2--4--0----|
 |--2-------2--4--0--2------------|--0----0--3--4--0----0--0--0----|
 |--0-------0--0--0--0----0--3--4-|--------------------------------|

[E] ~~~~~~~~~~
 
 |-----3-----| |----3-----| |--3--| |---3---| |---3----|

E E +E E E S S E E E E E E E E E E +E E E S S E
 
 |-16-17b19---(17)-17-16-16h17p16---17-17p16-17-|-17p16--------------------15-16s17-17-|
 |----------------------------------------------|---------17-17-17-(17)-17-------------|
 |----------------------------------------------|--------------------------------------|
 |----------------------------------------------|--------------------------------------|
 |----------------------------------------------|--------------------------------------|
 |----------------------------------------------|--------------------------------------|

|
 
 | |--3--| |---3----|

| E E E E E E E E E E E E E E E E E E
 
 |----------------------------------------------|--------------------------------------|
 |----------------------------------------------|--------------------------------------|
 |--------------------------------------------0-|--------------------------------------|
 |--2-------2-------------2-------2-------------|--------------------------------------|
 |--0-------0-------3--4--0-------0-----3h=4----|--2----2------------2---2-----------2-|
 |----------------------------------------------|--0----0-----3--4---0---0--3h=4-------|
 |--------3--------| |-------3--------| |---3---|

S +S E E E E E E S +S E E E
 
 |-17b19==(17)r(17)S==4-19\------------------------12-12---12---|
 |-------------------------------------------------12-12---12---|
 |--------------------------------------14b16-(14)--------------|
 |--------------------------------------------------------------|
 |--------------------------------------------------------------|
 |--------------------------/4-0h(4)/---------------------------|

|
| E E E E E E E E
 
 |--------------------------------------------------------------|
 |--------------------------------------------------------------|
 |--------------------------------------------------------------|
 |--------------------------------------------------------------|
 |--2---------------2----------2------2------------------0------|
 |--0---------------0----3---4-0------0-------------3-----------|

[B7]  
 
 |---3---| |-------3-------| |------3------| |--3--|

E E E S +S E E E S +S E E E E
 
 |-15-12---12------------12---12---------------------------|
 |----12---12------------12------15------------15----------|
 |------------14b16-(14)------------14b16-(14)----14-12----|
 |------------------------------------------------------14-|
 |---------------------------------------------------------|
 |---------------------------------------------------------|

|
| |--3--|
| E E E E E E E E E
 
 |---------------------------------------------------------|
 |---------------------------------------------------------|
 |---------------------------------------------------------|
 |--4----4------------------------4---------4------7p=4--0-|
 |--0----0-----5------------6-----0---------0------0-------|
 |---------------------------------------------------------|

[A]  
 
 |------3------| |----------3-----------| |------3-------| |-----3-----|

E S +S E S +S E S +S E S +S E a +E S S E
 
 |-12------------12------------12--------------12-------------12-------------------------|
 |-12------------12------------12--------------12-------------12-------------------------|
 |-12-14b16-(14)----14b16-(14)------14b16-(14)----14b16==(14)----14pb16==(14)r(14)-12-14-|
 |---------------------------------------------------------------------------------------|
 |---------------------------------------------------------------------------------------|
 |---------------------------------------------------------------------------------------|

|
 
 | |-----3-----|

| E E E E E E E E E
 
 |---------------------------------------------------------------------------------------|
 |---------------------------------------------------------------------------------------|
 |---------------------------------------------------------------------------------------|
 |--2---------2---------------------------------2----------2---------------------------2-|
 |--0---------0------3------------4-------------0----------0---------------3h===4--------|
 |---------------------------------------------------------------------------------------|

[E]  
 
 |---3---| |---3---| |---3---| |--3--|

[a] [E] [E] [E] [E] [E] [E] [E] [E] [E] [E] [E] [E]  
 
 |-------12---12-12-12---12-12-12---12-12-12-12-|
 |-------12---12-12-12---12-12-12---12-12-12-12-|
 |-12s13----------------------------------------|
 |----------------------------------------------|
 |----------------------------------------------|
 |----------------------------------------------|

|
| |--3--|
| E E E E E E E E E
 
 |----------------------------------------------|
 |----------------------------------------------|
 |----------------------------------------------|
 |----------------------------------------------|
 |-----2----2----------------2----2-----4p=2--4-|
 |-----0----0-----3----4-----0----0-------------|

N.C.
 
 |---3---| |--3--| |---3----|

E E E +E Q E E +E E E
 
 |-12---------------------------------------------||
 |-12---------------------------------------------||
 |---------12-(12)---12---12-12-----(12)----------||
 |----13---13-(13)---13---13-13-----(13)----------||
 |----14---14-(14)---14---14-14-----(14)---11-11--||
 |-----------------------------------------12-12--||

|
 
 | |--------3--------| |-------3--------|

| Q a Q a Q a Q a Q a Q
 
 |------------------------------------------------||
 |------------------------------------------------||
 |------------------------------------------------||
 |--2---------------------------------------------||
 |-------0h=2------0h=2-0h=2----0h2------0h=2-----||
 |------------------------------------------------||

Verse
Gtr I
E E Q Q Q E E Q Q Q E E Q H
 
 |-----------------|-----------------|-------------|
 |-----------------|-----------------|-------------|
 |-----------------|-----------------|-------------|
 |-----------------|-----------------|-------------|
 |-----------1tr2--|-----------1tr2--|-------------|
 |-0---------------|-0---------------|-0-----------|

W [A7]E E E E E E E E E E E E E E E E
 
 |----------|-----------------|-----------------|
 |----------|-----------------|---------------0-|
 |----------|-----------------|---------0-0-0-0-|
 |----------|-2-2-4-0-5-5-4-0-|-2-2-4-0-2-2-4-0-|
 |----------|-0-0-0-0-0-0-0-0-|-0-0-0-0-0-0-0---|
 |----------|-----------------|-----------------|

[E] |-3-| [B7] |-3-|
[E] [E] [E] [E] [E] [E] [E] [E] [E] [E] [E] [E] [E] [E] [E] [E] [E] [E] [E] [E] [E] [E] [E] [E] [E] [E]  
 
 |-----------------0-|-----------------|-------------------|
 |-------0---------0-|-------0-------0-|-------------------|
 |-------0-----------|-------0-------0-|-------------------|
 |-------0-----------|-------0-------0-|-4-4-6p5p4-4-4-6-0-|
 |-2-2-4---2-2-------|-2-2-4---2-2-4---|-0-0-0-----0-0-0-0-|
 |-0-0-0---0-0-3p0---|-0-0-0---0-0-0---|-------------------|

A7 E N.C.
 
 |-3-| |---3---| |---3---|

E E E E E E E E E E E E E E E E E Q a Q a Q a Q a Q a Q
 
 |-----------------|-----------------0-|------------------------||
 |---------------0-|-------0---------0-|------------------------||
 |---------0-0-0-0-|-------0---------0-|------------------------||
 |-2-2-4-0-2-2-4-0-|-------0-----------|------------------------||
 |-0-0-0-0-0-0-0---|-2-2-4---2-2-4p0---|---0h2-0h2-0h2-0h2-0h2--||
 |-----------------|-0-0-0---0-0-0-----|-0----------------------||

Verse
[E]  
[E] [E] [E] [E] [E] [E] [E] [E] [E] [E] [E] [E] [E] [E] [E] [E] [E] [E] [E] [E] [E] [E] [E] [E]  
 
 |-----------------|-----------------|-----------------|
 |-----------------|-----------------|-----------------|
 |-----------------|-----------------|-----------------|
 |-----------------|-------2---------|-----------------|
 |-2-2-4-0-2-2-4-0-|-2-2-4-2-2-2-4-0-|-2-2-4-0-2-2-4-0-|
 |-0-0-0-0-0-0-0-0-|-0-0-0---0-0-0-0-|-0-0-0-0-0-0-0-0-|

[E7] [A7] [E]  
 
 |-3-| |---3---| |-3-|

E E E E E Q a Q a Q E E E E E E E E E E E E E E E E E E E E E E E E E
 
 |---------------------|-----------------|-----------------|-------------------|
 |---------------------|-----------------|---------------0-|-------0-----------|
 |---1-1---------------|-----------------|---------0-0-0-0-|-------0-----------|
 |---0-0-0-0-2-0h2-0h2-|-2-2-4-4-5-5-4-4-|-2-2-4-0-2-2-4-0-|-------0---------2-|
 |-2-------------------|-0-0-0-0-0-0-0-0-|-0-0-0-0-0-0-0---|-2-2-4---2-2-------|
 |-0-------------------|-----------------|-----------------|-0-0-0---0-0-3h4---|

[B7] [A7] 
[E] [E] [E] [E] [E] [E] [E] [E] [E] [E] [E] [E] [E] [E] [E] [E] [E] [E] [E] [E] [E] [E] [E] [E]  
 
 |-----------------|-----------------|-----------------|
 |---------------0-|-----------------|---------------0-|
 |---------------0-|-----------------|---------0-0-0-0-|
 |---------------0-|-4-4-6-5-4-4-6-0-|-2-2-4-0-2-2-4-0-|
 |-2-2-4-0-2-2-4---|-0-0-0-0-0-0-0-0-|-0-0-0-0-0-0-0---|
 |-0-0-0-0-0-0-0---|-----------------|-----------------|

[E7] [F#9F9] [E9]  
 
 |-3-| |-3-| |-3-|

E E E E E E E E a E E E Q Q Q Q +H +E +E E E
 
 |-------------0-------------|----9--8--7--|-(7)----(7)-(7)-7-(7)\--*|
 |---------3-3-3-3-3---------|----9--8--7--|-(7)----(7)-(7)-7-(7)\--*|
 |---/4-/4-4-4-4-4-4-4s2-0---|----9--8--7--|-(7)----(7)-(7)---------*|
 |-------------------------2-|----8--7--6--|-(6)----(6)-(6)---------*|
 |---------------------------|----9--8--7--|-(7)----(7)-(7)---------*|
 |-0-------------------------|-0-----------|------------------------*|

Duration Legend
 
 ---------------
 W - whole; H - half; Q - quarter; E - 8th; S - 16th; T - 32nd; X - 64th; a - acciaccatura

+ - note tied to previous; . - note dotted; .. - note double dotted
Uncapitalized letters represent notes that are staccato (1/2 duration)
Irregular groupings are notated above the duration line
Duration letters will always appear directly above the note/fret number it represents the
duration for. Duration letters with no fret number below them represent rests. Multi-
bar rests are notated in the form Wxn, where n is the number of bars to rest for. Low
melody durations appear below the staff
Tablature Legend
 
 ----------------

h - hammer-on
p - pull-off
b - bend
pb - pre-bend
r - bend release (if no number after the r, then release immediately)
/\ - slide into or out of (from/to "nowhere")
s - legato slide
S - shift slide
- natural harmonic
(n) - artificial harmonic
n(n) - tapped harmonic
~ - vibrato
tr - trill
T - tap
TP - trem. picking
PM - palm muting
\n/ - tremolo bar dip; n = amount to dip
\n - tremolo bar down
n/ - tremolo bar up
/n\ - tremolo bar inverted dip
= - hold bend; also acts as connecting device for hammers/pulls
- volume swell (louder/softer)
x - on rhythm slash represents muted slash
o - on rhythm slash represents single note slash
Misc Legend
 
 -----------

| - bar
|| - double bar
||o - repeat start
o|| - repeat end
*| - double bar (ending)
: - bar (freetime)
$ - Segno
& - Coda
Tempo markers - = BPM(8/16=s8/s16), where s8 = swing 8ths, s16 = swing 16ths
***************************************************************************************
* Generated using Power Tab Editor by Brad Larsen - http://powertab.guitarnetwork.org *
***************************************************************************************

Important: The song above is NOT stored on the Chordie server. The original song is hosted at www.guitaretab.com. Chordie works as a search engine and provides on-the-fly formatting. Chordie does not index songs against artists'/composers' will. To remove this song please click here.

Text color:
Chord color:
Chord grids: 
Font size:    
Page size: 

A A7 B7 E E7 E9
Rate #2 of 3 versions

Login - add to songbook

SHARE PAGE  




You need to log in to post comments