Guitar Tabs, Chords and Lyrics
Login is temporarily disabled for some users. Do not panic. Will be back in an hour or two. DO NOT REREGISTER!!


Piccadilly Circus  Stiff Little Fingers

 
 -------------------------------------------------------------------------------

Piccadilly Circus - Stiff Little Fingers
 
 -------------------------------------------------------------------------------

Tabbed by: Mick 2009
(play 3 times)
[Gm]^ [Gm]v
S. S. S. S. S. S. Q E. E H.
 
 E||------------------------------|--3--3---------------|
 B||------------------------------|--3--3---------------|
 G||.--------0--------0-----------|--0--0--------------.|
 D||.-----4--------2--------------|--0--0--------------.|
 A||---5--------3-----------------|--1--1---------------|
 E||---------------------3----L---|--3--3---------------|

[Dm]^ [Dm]^ [Dm]^ [Dm]^ [Dm]^ [Dm]^ [Dm]^ [Dm]^
S. S. S. S. S. S. S. S. E E E E E E E E
 
 ------------------------|--------------------------|-------------------------|
 ------------------------|--------------------------|-------------------------|
 ------0--------0--------|--7--7--7--7--7--7--7--7--|-7--7--7--7--7--7--7--7--|
 ---4--------2--------2--|--7--7--7--7--7--7--7--7--|-7--7--7--7--7--7--7--7--|
 5--------3--------3-----|--5--5--5--5--5--5--5--5--|-5--5--5--5--5--5--5--5--|
 ------------------------|--------------------------|-------------------------|

[Gm]Piccadilly [Em]Circus in the [B]dead of night[Dm] [C]
[Gm]Just passing [Em]time beneath the [B]lights[Dm] [C]
[Em] Up in [C]town and all [Em]alone
Got no [C]business so minds his [Dm]own
[Gm]The hotel [Em]room is lonely and [B]cold[Dm] [C]
[Gm]He might as [Em]well go for a [B]stroll[Dm] [C]
[Em] Idly [C]looking in a hi-fi [Em]shop
Footsteps, a [C]chuckle, and one hard [Dm]slap
And they [Gm]didn't even [Dm]see his [C]face
See him flinch or hear him groan
They didn't even see his eyes
One [C]mean blow and on [Dm]they ran
[Gm]He put his [Em]fingers to his [B]side[Dm] [C]
And felt his flesh was open wide
[Em] He felt the [C]rent the blow had [Em]made
[Em] For the hand that [C]fell had held a [Dm]blade
And they [Gm]didn't even [Dm]see his f[C]ace
See him stumble, hear his cry
They didn't even see his eyes
[C]Just lashed out in [Dm]passing by
[B] What can it [Gm]mean?
[B] Who can make some [Am]sense of that?
[B] Did it mean a [Am]thing to them?
[Gm]What can make a [Am]mind like that?
Dm C Gm x3
[Dm] [C] [Dm]  
Am Gm x3
[Dm]  
[Gm]Those forty [Em]stitches helped him [B]over[Dm] [C]
Who can live life over his shoulder?
[Em] He tried to [C]put it in his [Em]past
And flew safe [C]home back to Bel[Dm]fast
And they [Gm]didn't even [Dm]see his [C]face
See him stagger, watch him fall
They didn't even see his eyes
They [C]never knew him at [Dm]all
[C] [Gm] [C] [Dm]  
(play 4 times)
[Gm]^ [Gm]v [Gm]^
S. S. S. S. S. S. Q E. E H.
 
 E||------------------------------|--3--3-------3--------|
 B||------------------------------|--3--3-------3--------|
 G||.--------0--------0-----------|--0--0-------0-------.|
 D||.-----4--------2--------------|--0--0-------0-------.|
 A||---5--------3-----------------|--1--1-------0--------|
 E||---------------------3----L---|--3--3-------3--------|

Dm C Gm x4
[Dm]Never [C]knew him[Gm]
Tried to kill him
Never knew him
Tried to kill him
Am Dm Am x4
[Am]Never [Dm]knew him[Am]
Tried to kill him
Never knew him
Tried to kill him
Mick 2009

Important: The song above is NOT stored on the Chordie server. The original song is hosted at www.guitaretab.com. Chordie works as a search engine and provides on-the-fly formatting. Chordie does not index songs against artists'/composers' will. To remove this song please click here.

Text color:
Chord color:
Chord grids: 
Font size:    
Page size: 

Am B C Dm Em Gm
Rate #1 of 2 versions

Login - add to songbook

SHARE PAGE  




You need to log in to post comments