Guitar Tabs, Chords and Lyrics
Server problems seems to be fixed. Chordie has been experiencing problems with songs disappearing. These issues now seems to be fixed, but still verifying the fix. If you find anything strange, please email admin@chordie.com.


Hits and Misses  Stiff Little Fingers

 
 -------------------------------------------------------------------------------

Hits And Misses - Stiff Little Fingers
 
 -------------------------------------------------------------------------------

Tabbed by: Mick 2009
[A]  
PM PM ^ PM PM PM PM PM PM PM PM PM
E E E E E E E E E E E E E Q E
 
 E||--------------------------|-------------------------|
 B||--------------------------|-------------------------|
 G||--------------------------|-----------------0----2--|
 D||--2--2--2--2--2--2--2--2--|--2--2--2--2--2--0----2--|
 A||--0--0--0--0--0--0--0--0--|--0--0--0--0--0----------|
 E||--------------------------|-------------------------|

[A]  
PM PM PM PM PM PM
E E Q E E Q E E Q E Q E 6x
 
 |-------------------------|-------------------------||
 |-------------------------|-------------------------||
 |*--------2----------2----|--------2-------0----2--*||
 |*--2--2--2----2--2--2----|--2--2--2----2--0----2--*||
 |---0--0--0----0--0--0----|--0--0--0----0-----------||
 |-------------------------|-------------------------||

[A]  
Q E E E E E E E E E Q. E E x4
 
 |-------------------------|------------------------|
 |-------2-----------------|------------------------|
 |----------4--2--4--2--1--|-----1------------2--2--|
 |-------------------------|--4-----4--2------------|
 |-------------------------|------------------------|
 |-------------------------|------------------------|

[D]Look at every [E]man you meet
It [C#m]can be him on [A]every street
The [D]woman's waiting [E]for the next [A]attack
[D]Bold black headlines [E]made in dark
Show [C#m]how the man can [A]make his mark
The [D]woman learned it [E]from her dad
How [D]he can [E]be like Jack the lad
(Chorus:)
[F#m]Hits and misses I [E]do you will
[D]Love and kisses [E]yours in hell.
[A]  
Q E E E E E E E E E Q. E E x4
 
 |-------------------------|------------------------|
 |-------2-----------------|------------------------|
 |----------4--2--4--2--1--|-----1------------2--2--|
 |-------------------------|--4-----4--2------------|
 |-------------------------|------------------------|
 |-------------------------|------------------------|

[D]Look at him in [E]every face
The [C#m]woman sees and [A]takes her place
He [D]rips at her heart,[E] till death them [A]part
[D]Everywhere she [E]sees his power
[C#m]Sees how Michael Caine [A]takes a shower
[D]See herself in [E]houseproud adds
[D]Gatefold Miss World, [E]Page Three, Miss X
(Chorus)
[F#m]Hits and misses I [E]do you will
[D]Love and kisses [E]yours in hell.
[A]  
Q E E E E E E E E E Q. E E x4
 
 |-------------------------|------------------------|
 |-------2-----------------|------------------------|
 |----------4--2--4--2--1--|-----1------------2--2--|
 |-------------------------|--4-----4--2------------|
 |-------------------------|------------------------|
 |-------------------------|------------------------|

C Bm x2
[A]I'm not talking about a psycho-killer
[G]Sonny, it's not one of those
[D]It could be you, it could be me
It's [E]someone we all know
[A]  
Q E E E E E E E E E Q. E E x4
 
 |-------------------------|------------------------|
 |-------2-----------------|------------------------|
 |----------4--2--4--2--1--|-----1------------2--2--|
 |-------------------------|--4-----4--2------------|
 |-------------------------|------------------------|
 |-------------------------|------------------------|

See him walk down any street
The woman fears and hears his feet
If his team lost, then she get beat
Neighbours shrug, go back to chatter
Just a man who's on the batter
Then he gets his legal way, on just another Saturday
(Chorus)
[F#m]Hits and misses I [E]do you will
[D]Love and kisses [E]yours in hell.
[A]  
Q E E E E E E E E E Q. E E x8
 
 |-------------------------|------------------------|
 |-------2-----------------|------------------------|
 |----------4--2--4--2--1--|-----1------------2--2--|
 |-------------------------|--4-----4--2------------|
 |-------------------------|------------------------|
 |-------------------------|------------------------|

Mick 2009

Important: The song above is NOT stored on the Chordie server. The original song is hosted at www.guitaretab.com. Chordie works as a search engine and provides on-the-fly formatting. Chordie does not index songs against artists'/composers' will. To remove this song please click here.

Text color:
Chord color:
Chord grids: 
Font size:    
Page size: 

A C#m D E F#m G
Rate #2 of 2 versions

Login - add to songbook

SHARE PAGE  



You need to log in to post comments